Oops, an error
Loading. Please wait.

Descent Tab

version 4
version 4

Whole song

Interactive

2,521 views 15 this week
no commentswrite comment
1 2 3 4 5
please rate
add to favorites
launch autoscroll
font size
0
reset
how to read this tab
guitar tuner
Autoscroll
slow
fast
+/-
esc
set tempo
stop
Help us to improve Ultimate-Guitar.com Take our survey!
×
this is "descent" by fear factory off the "obsolete" album in 98
tuning is AEADGB for six string. AEADGBE for u lucky seven stringers.


intro
B|----2----2---2-----2-----2-----2----------------------------------------|
G|-----2----2---2---2-2-----2------2--------------------------------------|
D|------------------------------------------------------------------------|
A|------------------------------------------------------------------------|
E|------------------------------------------------------------------------|
A|-2~----4~---5---7------2-----4------0~~~~~~~~---------------------------|

e|--------------------------------------------------------------------------|
B|----2-------2------2-------2-------2----2---------------------------------|
G|-----2-------2------2----2---2------2----2--------------------------------|
D|--------------------------------------------------------------------------|
A|---------------------------------------------0-0-0-0-2-2-2-0--------------|
E|---------------------------------------------0-0-0-0-2-2-2-0--------------|
A]-2-------4------5------7--------2------4-----0-0-0-0-2-2-2-0--------------|
                                                 @   @   @

chorus
e|---------------------------------------------------------------------------|
B]---2----2----2-----2----2-----2-----2-------2------------------------------|
G|----2----2----2---2-2----2-----2-----2----2--------------------------------|
D|---------------------------------------------------------------------------|
A|---------------------------------------------------------------------------|
E|---------------------------------------------------------------------------|
A]-2-----4----5----7-----2----4-----0-----2------0-2-------------------------|

repeat that two times then theres the bass verse

then at end of vers  the pre chorus goes
strum this quite hard ladies and gentlemen


B|----------------------------------------------------------------------------|
G|----------------------------------------------------------------------------|
D|----------------------------------------------------------------------------|
A|-2-----244--45----577-52--200-----------------------------------------------|
E|-2-----244--45----577-52--200-----------------------------------------------|
A|-2-----244--45----577-52--200-----------------------------------------------|

e|----------------------------------------------------------------------------|
B|----------------------------------------------------------------------------|
G|----------------------------------------------------------------------------|
D|---6----6-------------------------------------------------------------------|
A|---6----6--7-7-7-7-5--------------------------------------------------------|
E|---4----4--7-7-7-7-5--------------------------------------------------------|
A]-0-----0---7-7-7-7-5--------------------------------------------------------|
   @     @   @   @


then repeat chrous X2 again then another bass verse then


"LIFE DID NOT, OFFER ME, NORE THAN FALSE, DESTINY!!!"


then repeat the pre chrous and chourus again then

e]----------------------------------------------------------------------------|
b|----------------------------------------------------------------------------|
g|----------------------------------------------------------------------------|
d|-----------------------------------666--------------------------------------|
a|-2-2-244424--5--5--5-777-5-22-000--666--555--5------------------------------|
e|-2-2-244424--5--5--5-777-5-22-000--444--555--5------------------------------|
A|-2-2-244424--5--5--5-777-5-22-000-------777--5------------------------------|

repeat twice then

" am nothing, i feel nothing..."

e]----------------------------------------------------------------------------|
b|----------------------------------------------------------------------------|
g|----------------------------------------------------------------------------|
d|--99--777-666---------------------------------------------------------------|
a|--99--777-666--7-57-57-5----------------------------------------------------|
e|--77--555-444--7-57-57-5----------------------------------------------------|
A|---------------7p57p57p5----------------------------------------------------|

nothinG...
NOTHING!!...
NO THING!!........

then intro, chorus then end on


e]----------------------------------------------------------------------------|
b|----------------------------------------------------------------------------|
g|----------------------------------------------------------------------------|
d|----------------------------------------------------------------------------|
a|--5-7-5--2~~~~~~~~~~~-------------------------------------------------------|
e|--5-7-5--2~~~~~~~~~~--------------------------------------------------------|
A|--5-7-5--2~~~~~~~~----------------------------------------------------------|

tabbed by chris owens


legend:
@= PM
p=pull off
~~=let ring
Suggest correction
Give kudos to tab author, rate the tab!
1 2 3 4 5
comments
print report bad tab
guest
You may want to rate the tab now too:
select rating
Wanna post a correction for this tab? Suggest correction