Oops, an error
Loading. Please wait.

Dog Day Sunrise Tab

version 2
version 2

Whole song

Interactive

950 views 1 this week
1 commentread comment
1 2 3 4 5
accurate
x 3
add to favorites
launch autoscroll
font size
0
reset
how to read this tab
guitar tuner
Autoscroll
slow
fast
+/-
esc
set tempo
stop
Help us to improve Ultimate-Guitar.com Take our survey!
×
Author
----------------------------------------------------------------------------
                             DOG DAY SUNRISE - Fear Factory
----------------------------------------------------------------------------
Tabbed by: James
Email: the.master.ofpuppets@hotmail.com

Tuning: Standard


I dont know if its an octave lower, i doubt it. easy songs 2 parts:

e|-------------------------------------------------------------------------|
B|-------------------------------------------------------------------------|
G|-------------------------------------------------------------------------|
D|------------4~~~-----------2~~~-------------4~~~-------------2~~~~~------|
A|-------------------------------------------------------------------------|
E|--------2--------2----0----------0------2--------2------0----------------|

then this riff:
e|-------------------------------------------------------------------------|
B|-------------------------------------------------------------------------|
G|-------------------------------------------------------------------------|
D|-----------------5-----------------5-------------------5---------------5-|
A|---4---4---2--4--3---4---4--2---4--3----4---4---2---4--3---4--4--2--4--3-|
E|---2---2---0--2------2---2--0---2-------2---2---0---2------2--2--0--2---|

| /  slide up
| \  slide down
| h  hammer-on
| p  pull-off
| ~  vibrato
| +  harmonic
| x  Mute note
============================================================================
Suggest correction
Give kudos to tab author, rate the tab!
1 2 3 4 5
comments
print report bad tab
1 comment total.
0 reply
hiyabuddy69 232 wrote on April 18 2009, 10:38 am

e|-------------------------------------------------------------------------|
B|-------------------------------------------------------------------------|
G|-------------------------------------------------------------------------|
D|------------4~~~-----------4~~~-------------4~~~-------------4~~~~~------|
A|-------------------------------------------------------------------------|
E|--------2--------2----0----------0------2--------2------0----------------|

guest
You may want to rate the tab now too:
select rating
Wanna post a correction for this tab? Suggest correction