Oops, an error
Loading. Please wait.

Dog Day Sunrise Bass Tab

version 3
version 3

Whole song

Interactive

79 views 1 this week
no commentswrite comment
1 2 3 4 5
3 more votes to show rating
add to favorites
launch autoscroll
font size
0
reset
guitar tuner
Autoscroll
slow
fast
+/-
esc
set tempo
stop
Help us to improve Ultimate-Guitar.com Take our survey!
×
Author
Difficulty
intro

------------------------------|
--4------2-----4-----2--------|
2----2-0---0-2---2-0---2------|....
------------------------------|
verse
----------|
--------3-|
2-2-1-2---|
----------|

chorus
------------------------------|
--4------2-----4-----2--------|
2----2-0---0-2---2-0---2------|....
------------------------------|
Suggest correction
Give kudos to tab author, rate the tab!
1 2 3 4 5
comments
print report bad tab
guest
You may want to rate the tab now too:
select rating
Wanna post a correction for this tab? Suggest correction