Oops, an error
Loading. Please wait.

Dog Day Sunrise Tab

version 3
version 3

Whole song

Interactive

1,152 views 3 this week
1 commentread comment
1 2 3 4 5
accurate
x 4
add to favorites
launch autoscroll
font size
0
reset
how to read this tab
guitar tuner
Autoscroll
slow
fast
+/-
esc
set tempo
stop
Help us to improve Ultimate-Guitar.com Take our survey!
×
#----------------------------------PLEASE NOTE---------------------------------#
#This file is the author's own work and represents their interpretation of the #
#song. You may only use this file for private study, scholarship, or research. #
#------------------------------------------------------------------------------#

DOG DAY SUNRISE
As recorded by Fear Factory
(From the 1995 Album DEMANUFACTURE)

Transcribed by erikthestupid@hotmail.com
        

Words by Burton C Bell Music by Fear Factory

Gtr I (B E A D F# B) - 'Untitled'
Gtr II (B E A D F# B) - 'Untitled'

   Intro
    Q=150
   4/4
    Gtr II
    W          +W           +W           +W      4x
||-----------|------------|------------|---------||
||o----------|------------|------------|--------o||
||-----------|------------|------------|---------||
||-----------|------------|------------|---------||
||o-6--------|-(6)--------|-(6)--------|-(6)----o||
||-----------|------------|------------|---------||


    Gtr I
     Q.   E +Q   Q     Q.   E +Q   Q     Q.   E +Q   Q     Q.   E +Q   Q
||------------------|-----------------|-----------------|-------------------||
||o-----------------|-----------------|-----------------|------------------o||
||------------------|-----------------|-----------------|-------------------||
||--------9-(9)-----|-------7-(7)-----|-------9-(9)-----|-------7-(7)-------||
||o-----------------|-----------------|-----------------|------------------o||
||---7-----------7--|--5-----------5--|--7-----------7--|--5-----------5----||
|
|   Gtr II
|   +W                +W                +W                +W
||------------------|-----------------|-----------------|-------------------||
||o-----------------|-----------------|-----------------|------------------o||
||------------------|-----------------|-----------------|-------------------||
||------------------|-----------------|-----------------|-------------------||
||o-(6)-------------|-(6)-------------|-(6)-------------|-(6)--------------o||
||------------------|-----------------|-----------------|-------------------||


   Verse 1
    Q  E E E E +Q     Q  E E E E +Q     Q  E E E E +Q     Q  E E E E +Q     7x
||------------------|-----------------|-----------------|-------------------||
||o-----------------|-----------------|-----------------|------------------o||
||------------------|-----------------|-----------------|-------------------||
||------------------|-----------------|-----------------|-------------------||
||o----------8-(8)--|----------8-(8)--|----------8-(8)--|----------8-(8)---o||
||--7--7-5-7--------|-7--7-5-7--------|-7--7-5-7--------|-7--7-5-7----------||


   Chorus
    Q.   E +Q   Q     Q.   E +Q   Q     Q.   E +Q   Q     Q.   E +Q   Q
||-----------------|-----------------|-----------------|-------------------||
||o----------------|-----------------|-----------------|------------------o||
||-----------------|-----------------|-----------------|-------------------||
||-------9-(9)-----|-------7-(7)-----|-------9-(9)-----|-------7-(7)-------||
||o----------------|-----------------|-----------------|------------------o||
||--7-----------7--|--5-----------5--|--7-----------7--|--5-----------5----||
|
|   Gtr II
|   W                +W                +W                +W
||-----------------|-----------------|-----------------|-------------------||
||o----------------|-----------------|-----------------|------------------o||
||-----------------|-----------------|-----------------|-------------------||
||-----------------|-----------------|-----------------|-------------------||
||o-6--------------|-(6)-------------|-(6)-------------|-(6)--------------o||
||-----------------|-----------------|-----------------|-------------------||


   Verse 2
    Q  E E E E +Q     Q  E E E E +Q     Q  E E E E +Q     Q  E E E E +Q     3x
||------------------|-----------------|-----------------|-------------------||
||o-----------------|-----------------|-----------------|------------------o||
||------------------|-----------------|-----------------|-------------------||
||------------------|-----------------|-----------------|-------------------||
||o----------8-(8)--|----------8-(8)--|----------8-(8)--|----------8-(8)---o||
||--7--7-5-7--------|-7--7-5-7--------|-7--7-5-7--------|-7--7-5-7----------||


   Chorus
    Q.   E +Q   Q     Q.   E +Q   Q     Q.   E +Q   Q     Q.   E +Q   Q
||-----------------|-----------------|-----------------|-------------------||
||o----------------|-----------------|-----------------|------------------o||
||-----------------|-----------------|-----------------|-------------------||
||-------9-(9)-----|-------7-(7)-----|-------9-(9)-----|-------7-(7)-------||
||o----------------|-----------------|-----------------|------------------o||
||--7-----------7--|--5-----------5--|--7-----------7--|--5-----------5----||
|
|   Gtr II
|   W                +W                +W                +W
||-----------------|-----------------|-----------------|-------------------||
||o----------------|-----------------|-----------------|------------------o||
||-----------------|-----------------|-----------------|-------------------||
||-----------------|-----------------|-----------------|-------------------||
||o-6--------------|-(6)-------------|-(6)-------------|-(6)--------------o||
||-----------------|-----------------|-----------------|-------------------||


   Interlude
     Q.   E +Q   Q     Q.   E +Q   Q     Q.   E +Q   Q     Q.   E +Q   Q    6x
||------------------|-----------------|-----------------|-------------------||
||o-----------------|-----------------|-----------------|------------------o||
||------------------|-----------------|-----------------|-------------------||
||--------9-(9)-----|-------7-(7)-----|-------9-(9)-----|-------7-(7)-------||
||o-----------------|-----------------|-----------------|------------------o||
||---7-----------7--|--5-----------5--|--7-----------7--|--5-----------5----||
|
|   +W                +W                +W                +W                6x
||------------------|-----------------|-----------------|-------------------||
||o-----------------|-----------------|-----------------|------------------o||
||------------------|-----------------|-----------------|-------------------||
||------------------|-----------------|-----------------|-------------------||
||o-(6)-------------|-(6)-------------|-(6)-------------|-(6)--------------o||
||------------------|-----------------|-----------------|-------------------||


   Verse 3
    Q  E E E E +Q     Q  E E E E +Q     Q  E E E E +Q     Q  E E E E +Q
||------------------|-----------------|-----------------|-------------------||
||o-----------------|-----------------|-----------------|------------------o||
||------------------|-----------------|-----------------|-------------------||
||------------------|-----------------|-----------------|-------------------||
||o----------8-(8)--|----------8-(8)--|----------8-(8)--|----------8-(8)---o||
||--7--7-5-7--------|-7--7-5-7--------|-7--7-5-7--------|-7--7-5-7----------||


   Chorus
    Q.   E +Q   Q     Q.   E +Q   Q     Q.   E +Q   Q     Q.   E +Q   Q    4x
||-----------------|-----------------|-----------------|-------------------||
||o----------------|-----------------|-----------------|------------------o||
||-----------------|-----------------|-----------------|-------------------||
||-------9-(9)-----|-------7-(7)-----|-------9-(9)-----|-------7-(7)-------||
||o----------------|-----------------|-----------------|------------------o||
||--7-----------7--|--5-----------5--|--7-----------7--|--5-----------5----||
|
|   Gtr II
|   W                +W                +W                +W                4x
||-----------------|-----------------|-----------------|-------------------||
||o----------------|-----------------|-----------------|------------------o||
||-----------------|-----------------|-----------------|-------------------||
||-----------------|-----------------|-----------------|-------------------||
||o-6--------------|-(6)-------------|-(6)-------------|-(6)--------------o||
||-----------------|-----------------|-----------------|-------------------||


   Outro
    Q  E E E E +Q     Q  E E E E +Q     Q  E E E E +Q     Q  E E E E +Q     5x
||------------------|-----------------|-----------------|-------------------||
||o-----------------|-----------------|-----------------|------------------o||
||------------------|-----------------|-----------------|-------------------||
||------------------|-----------------|-----------------|-------------------||
||o----------8-(8)--|----------8-(8)--|----------8-(8)--|----------8-(8)---o||
||--7--7-5-7--------|-7--7-5-7--------|-7--7-5-7--------|-7--7-5-7----------||
|
|   W                 W                 W                 W                 5x
||------------------|-----------------|-----------------|-------------------||
||o-----------------|-----------------|-----------------|------------------o||
||------------------|-6---------------|-----------------|-1-----------------||
||------------------|-----------------|-3---------------|-------------------||
||o-1---------------|-4---------------|-----------------|------------------o||
||------------------|-----------------|-----------------|-------------------||


    Q.   E +Q   Q     Q.   E +Q   Q     Q.   E +Q   Q     Q.   E +Q   Q
||-----------------|-----------------|-----------------|-------------------||
||o----------------|-----------------|-----------------|------------------o||
||-------4-(4)-----|-----------------|-------4-(4)-----|-------------------||
||-----------------|-------7-(7)-----|-----------------|-------7-(7)-------||
||o----------------|-----------------|-----------------|------------------o||
||--7-----------7--|--5-----------5--|--7-----------7--|--5-----------5----||
|
|   W                +W                +W                +W
||-----------------|-----------------|-----------------|-------------------||
||o----------------|-----------------|-----------------|------------------o||
||-----------------|-----------------|-----------------|-------------------||
||-----------------|-----------------|-----------------|-------------------||
||o-6--------------|-(6)-------------|-(6)-------------|-(6)--------------o||
||-----------------|-----------------|-----------------|-------------------||


                           >
  ~~~~~~~~~~~~~~~~~~~~~~~~~~~~~~~~~~~~~~~~~
  W          +W           +W           +W
|----------|------------|------------|--------*|
|----------|------------|------------|--------*|
|----------|------------|------------|--------*|
|----------|------------|------------|--------*|
|----------|------------|------------|--------*|
|-7--------|-(7)--------|-(7)--------|-(7)----*|



Duration Legend
---------------
W - whole; H - half; Q - quarter; E - 8th; S - 16th; T - 32nd; X - 64th; a - acciaccatura
+ - note tied to previous; . - note dotted; .. - note double dotted
Uncapitalized letters represent notes that are staccato (1/2 duration)
Irregular groupings are notated above the duration line
Duration letters will always appear directly above the note/fret number it represents the
duration for.  Duration letters with no fret number below them represent rests.  Multi-
bar rests are notated in the form Wxn, where n is the number of bars to rest for.  Low
melody durations appear below the staff

Tablature Legend
----------------
 h   - hammer-on
 p   - pull-off
 b   - bend
 pb  - pre-bend
 r   - bend release (if no number after the r, then release immediately)
 /\  - slide into or out of (from/to "nowhere")
 s   - legato slide
 S   - shift slide
 - natural harmonic
[n]  - artificial harmonic
n(n) - tapped harmonic
 ~   - vibrato
 tr  - trill
 T   - tap
 TP  - trem. picking
 PM  - palm muting
\n/  - tremolo bar dip; n = amount to dip
 \n  - tremolo bar down
 n/  - tremolo bar up
/n\  - tremolo bar inverted dip
 =   - hold bend; also acts as connecting device for hammers/pulls
 <> - volume swell (louder/softer)
 x   - on rhythm slash represents muted slash
 o   - on rhythm slash represents single note slash

Misc Legend
-----------
 |  - bar
||  - double bar
||o - repeat start
o|| - repeat end
*|  - double bar (ending)
 :  - bar (freetime)
 $  - Segno
 &  - Coda
Tempo markers -  = BPM(8/16=s8/s16), where s8 = swing 8ths, s16 = swing 16ths

Suggest correction
comments
print report bad tab
1 comment total.
0 reply
thommoboy 744 wrote on August 29 2010, 09:04 pm

great tab!!!!!!!!!!

guest
You may want to rate the tab now too:
select rating
Wanna post a correction for this tab? Suggest correction