Oops, an error
Loading. Please wait.

Dog Day Sunrise Bass Tab

version 4
version 4

Whole song

Interactive

127 views 1 this week
no commentswrite comment
1 2 3 4 5
please rate
add to favorites
launch autoscroll
font size
0
reset
guitar tuner
Tab Pro tools
  • play this tab
  • loop segment
  • change instrument
  • show fretboard
  • metronome
×
Best way to learn
"Dog Day Sunrise"
Autoscroll
slow
fast
+/-
esc
set tempo
stop
Contributor
#----------------------------------PLEASE NOTE---------------------------------#
#This file is the author's own work and represents their interpretation of the #
#song. You may only use this file for private study, scholarship, or research. #
#------------------------------------------------------------------------------#

DOG DAY SUNRISE (Bassline)
As recorded by Fear Factory
(From the 1995 Album DEMANUFACTURE)

Transcribed by erikthestupid@hotmail.com
	

Words by Burton C Bell Music by Fear Factory

Gtr I (B E A D) - 'Untitled'

   Intro
    Q=150
   4/4
    Gtr I
    W          W          W          W     4x
||-----------|----------|----------|-------||
||o----------|----------|----------|------o||
||o----------|----------|----------|------o||
||-----------|----------|----------|-------||


    Q.   E +Q   Q    Q.   E +Q   Q    Q.   E +Q   Q    Q.   E +Q   Q
||-------4-(4)-----|------2-(2)-----|------4-(4)-----|------2-(2)-------||
||o----------------|----------------|----------------|-----------------o||
||o-2-----------2--|-0-----------0--|-2-----------2--|-0-----------0---o||
||-----------------|----------------|----------------|------------------||


   Verse 1
    Q  E E E E +Q     Q  E E E E +Q     Q  E E E E +Q     Q  E E E E +Q     7x
||------------------|-----------------|-----------------|-------------------||
||o----------3-(3)--|----------3-(3)--|----------3-(3)--|----------3-(3)---o||
||o-2--2-0-2--------|-2--2-0-2--------|-2--2-0-2--------|-2--2-0-2---------o||
||------------------|-----------------|-----------------|-------------------||


   Chorus
    Q.   E +Q   Q    Q.   E +Q   Q    Q.   E +Q   Q    Q.   E +Q   Q
||-------4-(4)-----|------2-(2)-----|------4-(4)-----|------2-(2)-------||
||o----------------|----------------|----------------|-----------------o||
||o-2-----------2--|-0-----------0--|-2-----------2--|-0-----------0---o||
||-----------------|----------------|----------------|------------------||


   Verse 2
    Q  E E E E +Q     Q  E E E E +Q     Q  E E E E +Q     Q  E E E E +Q     3x
||------------------|-----------------|-----------------|-------------------||
||o----------3-(3)--|----------3-(3)--|----------3-(3)--|----------3-(3)---o||
||o-2--2-0-2--------|-2--2-0-2--------|-2--2-0-2--------|-2--2-0-2---------o||
||------------------|-----------------|-----------------|-------------------||


   Chorus
    Q.   E +Q   Q    Q.   E +Q   Q    Q.   E +Q   Q    Q.   E +Q   Q
||-------4-(4)-----|------2-(2)-----|------4-(4)-----|------2-(2)-------||
||o----------------|----------------|----------------|-----------------o||
||o-2-----------2--|-0-----------0--|-2-----------2--|-0-----------0---o||
||-----------------|----------------|----------------|------------------||


 Interlude
  W          +W           +W           +W
|----------|------------|------------|--------|
|----------|------------|------------|--------|
|-2--------|-(2)--------|-(2)--------|-(2)----|
|----------|------------|------------|--------|


    +W           +W           +W           +W      3x
||-------------|------------|------------|---------||
||o------------|------------|------------|--------o||
||o-(2)--------|-(2)--------|-(2)--------|-(2)----o||
||-------------|------------|------------|---------||


    Q.   E +Q   Q    Q.   E +Q   Q    Q.   E +Q   Q    Q.   E +Q   Q
||-------4-(4)-----|------2-(2)-----|------4-(4)-----|------2-(2)-------||
||o----------------|----------------|----------------|-----------------o||
||o-2-----------2--|-0-----------0--|-2-----------2--|-0-----------0---o||
||-----------------|----------------|----------------|------------------||


   Verse 3
    Q  E E E E +Q     Q  E E E E +Q     Q  E E E E +Q     Q  E E E E +Q
||------------------|-----------------|-----------------|-------------------||
||o----------3-(3)--|----------3-(3)--|----------3-(3)--|----------3-(3)---o||
||o-2--2-0-2--------|-2--2-0-2--------|-2--2-0-2--------|-2--2-0-2---------o||
||------------------|-----------------|-----------------|-------------------||


   Chorus
    Q.   E +Q   Q    Q.   E +Q   Q    Q.   E +Q   Q    Q.   E +Q   Q    4x
||-------4-(4)-----|------2-(2)-----|------4-(4)-----|------2-(2)-------||
||o----------------|----------------|----------------|-----------------o||
||o-2-----------2--|-0-----------0--|-2-----------2--|-0-----------0---o||
||-----------------|----------------|----------------|------------------||


   Outro
    Q  E E E E +Q     Q  E E E E +Q
||------------------|-----------------|
||o----------3-(3)--|----------3-(3)--|
||o-2--2-0-2--------|-2--2-0-2--------|
||------------------|-----------------|


  Q  E E E E +Q     Q  E E E E +Q    5x Wx12
|-----------------|------------------||---------*|
|----------3-(3)--|----------3-(3)--o||---------*|
|-2--2-0-2--------|-2--2-0-2--------o||---------*|
|-----------------|------------------||---------*|



Duration Legend
---------------
W - whole; H - half; Q - quarter; E - 8th; S - 16th; T - 32nd; X - 64th; a - acciaccatura
+ - note tied to previous; . - note dotted; .. - note double dotted
Uncapitalized letters represent notes that are staccato (1/2 duration)
Irregular groupings are notated above the duration line
Duration letters will always appear directly above the note/fret number it represents the
duration for.  Duration letters with no fret number below them represent rests.  Multi-
bar rests are notated in the form Wxn, where n is the number of bars to rest for.  Low
melody durations appear below the staff

Tablature Legend
----------------
 h   - hammer-on
 p   - pull-off
 b   - bend
 pb  - pre-bend
 r   - bend release (if no number after the r, then release immediately)
 /\  - slide into or out of (from/to "nowhere")
 s   - legato slide
 S   - shift slide
 - natural harmonic
[n]  - artificial harmonic
n(n) - tapped harmonic
 ~   - vibrato
 tr  - trill
 T   - tap
 TP  - trem. picking
 PM  - palm muting
\n/  - tremolo bar dip; n = amount to dip
 \n  - tremolo bar down
 n/  - tremolo bar up
/n\  - tremolo bar inverted dip
 =   - hold bend; also acts as connecting device for hammers/pulls
 <> - volume swell (louder/softer)
 x   - on rhythm slash represents muted slash
 o   - on rhythm slash represents single note slash

Misc Legend
-----------
 |  - bar
||  - double bar
||o - repeat start
o|| - repeat end
*|  - double bar (ending)
 :  - bar (freetime)
 $  - Segno
 &  - Coda
Tempo markers -  = BPM(8/16=s8/s16), where s8 = swing 8ths, s16 = swing 16ths

comments
We did not receive enough feedback on this tab! Please rate:
print report bad tab
1 2 3 4 5
I want to post or [tab]
guest
You may want to rate the tab now too:
select rating
Please do not post tabs as comments. Select "correction" instead!