Oops, an error
Loading. Please wait.

Edgecrusher Bass Tab

version 3
version 3

Whole song

Interactive

794 views 1 this week
no commentswrite comment
1 2 3 4 5
please rate
add to favorites
launch autoscroll
font size
0
reset
guitar tuner
Autoscroll
slow
fast
+/-
esc
set tempo
stop
Help us to improve Ultimate-Guitar.com Take our survey!
×
Difficulty
Tuning
intermediate
B F# B E G# C#
Intro & Chorus
G:---------------------------------|---------------------------------|
D:---------------------------------|---------------------------------|
A:---------------------------------|---------------------------------|
E:---------------------------------|---------------------------------|
B:-1-0-0-0-1-0-0-0-1-0-0-0-1-0-1-2-|-1-0-0-0-1-0-0-0-1-0-0-0-1-0-2-1-|

Verse
G:-----------------------|
D:-----------------------|
A:-----------------------|
E:------0----2/9--5------|
B:-0-----------------2-1-|


Pre-Chorus
G:-------------------------------------|
D:-------------------------------------|
A:-------------------------------------|
E:-------------------------5-5-5-5-----|
B:0----6-6-6-6--6---4----0---------2-1-|


Break
G:------------|------------|---|------------|------------|
D:------------|------------|---|------------|------------|
A:------------|------------|---|------------|------------|
E:------------|------------|---|------------|------------|
B:-5----5-5-5-|-5----5-5-5-|-5-|-5----5-5-5-|-5----5-5-5-|

G:---|-----------|------------|---|------------|------------------|
D:---|-----------|------------|---|------------|------------------|
A:---|-----------|------------|---|------------|------------------|
E:---|-----------|------------|---|------------|------------------|
B:-5-|-5----5-5-5|-5----5-5-5-|-5-|-5----5-5-5-|-5----5-5-5--5--5-|


Bridge
G:-------------------------------------------------|
D:-------------------------------------------------|
A:-------------------------------------------------|
E:-------------------------------------------------|
B:-5-4-5-4-5-4-5-4-5-4-5-4-5-4-5-4-5-4-5-4-5-0-1-0-| 2x

G:-------------------------------------------------|
D:-------------------------------------------------|
A:-------------------------------------------------|
E:-------------------------------------------------|
B:-8-4-5-0-1-0-7-4-5-0-1-0-6-4-5-0-1-0-5-4-5-0-1-0-| 2x


After the last Chorus
G:---------------------------------|---------------------------------|
D:---------------------------------|---------------------------------|
A:---------------------------------|---------------------------------|
E:---------------------------------|---------------------------------|
B:-1-1-0-0-1-1-0-0-1-1-0-0-1-1-1-2-|-1-1-0-0-1-1-0-0-1-1-0-0-1-0-1-0-| 2x

G:---|
D:---|
A:---|
E:---|
B:-0-|
Suggest correction
Give kudos to tab author, rate the tab!
1 2 3 4 5
comments
print report bad tab
guest
You may want to rate the tab now too:
select rating
Please do not post tabs as comments. Select "correction" instead!