Oops, an error
Loading. Please wait.

Empty Vision Bass Tab

259 views 1 this week
no commentswrite comment
1 2 3 4 5
please rate
add to favorites
launch autoscroll
font size
0
reset
guitar tuner
Autoscroll
slow
fast
+/-
esc
set tempo
stop
Help us to improve Ultimate-Guitar.com Take our survey!
×
Contributor
Difficulty
novice
Band: Fear Factory
Album: Transgression
Song: Empty Vision
Tuning 5-string: B E A D G
Tabbed By ClosedRoad

All trough the song listen for perfect timing

Intro first only guitar then

G ------------------------------------------------|
D ------------------------------------------------|
A ------------------------------------------------|
E ------------------------------------------------| 2x
B -55555555--6-66-6-66-66-8888-6-66-6-66-66-8888--|

Verse
G ---------------------------------------------------------------|
D ---------------------------------------------------------------|
A ---------------------------------------------------------------| -|
E ---------------------------------------------------------------|  |
B -6-666-66666-66666-666-666-666--6-666-66666-66666-666-666-666--|  |
                                                                    |
                                                                    |- 2x
G ---------------------------------------------------------------|  |
D ---------------------------------------------------------------|  |
A ---------------------------------------------------------------|  |
E ---------------------------------------------------------------| -|
B -5-555-55555-55555-555-555-555--5-555-55555-55555-555-555-555--|

After verse I
G ----------------------------|
D ----------------------------|
A ----------------------------| 2x
E ----------------------------|
B -5p4-4-5p4h5p4h5p4-4-5p4h7--|

verse 2x
After Verse I 1x

After Verse II
G --------------------------------------------------------|
D --------------------------------------------------------|
A --------------------------------------------------------|
E --------------------------------------------------------|
B -5p4-4-5p4h5p4h5p4-4-5p4h7--5p4-4-5p4h5p4h5p4-4-555555--|

Chorus 2x
G ----------------------------------------|
D ----------------------------------------|
A ----------------------------------------|
E ----------------------------------------|
B -6-666-66-66-888888-6-666-66-66-888888--|

G ----------------------------------------|
D ----------------------------------------|
A ----------------------------------------|
E ----------------------------------------|
B -5-555-55-55-555555-5-555-55-55-555555--|

After Chorus
G ---------------|
D ---------------|
A ---------------|
E ---------------|
B -6----------6--|

Verse : start with the 5's then 6's then 5's

After verse 2x
Verse 2x
After Verse I 2x
After Verse II 1x
Chorus 2x

Bridge pt I 2x
G --------------------------------------------|
D --------------------------------------------|
A --------------------------------------------|
E --------------------------------------------|
B -000---000-0-000-000---000---000-0-000-000--|

G ----------------------------------------------|
D ----------------------------------------------|
A ----------------------------------------------|
E ----------------------------------------------|
B -000---000-0-000-000---000---000-000-000-000--|

Bridge pt II
G ----------------------------------------------|
D ----------------------------------------------|
A ----------------------------------------------|
E -8-7///----------------7-6///-----------------|
B --------000-0-000-000----------000-0-000-000--|

G ------------------------------------------------|
D ------------------------------------------------|
A ------------------------------------------------|
E -6-5///----------------4-3///-------------------|
B --------000-0-000-000----------000-000-000-000--|

Guitar riff
then Intro 2x
Chorus 2x

End Chorus
G -----------------------------------------|
D -----------------------------------------|
A -----------------------------------------|
E -----------------------------------------| 2x
B -5-555-55-55-555555--5-555-55-55-555555--|

G -----------------------------------------------------------------------|
D -----------------------------------------------------------------------|
A -----------------------------------------------------------------------|
E -----------------------------------------------------------------------|
B -5-555-55-55-5-5---5-555-55-55-5-5---5-555-55-55-5-5---5-555-55-5-5-5--|

That's it such an good song
have fun greetings ClosedRoad
comments
We did not receive enough feedback on this tab! Please rate:
print report bad tab
1 2 3 4 5
I want to post or [tab]
guest
You may want to rate the tab now too:
select rating
Please do not post tabs as comments. Select "correction" instead!