Oops, an error
Loading. Please wait.

Final Exit Tab

version 1
version 1

Whole song

5,112 views 4 this week
no commentswrite comment
1 2 3 4 5
excellent!
x 4
add to favorites
launch autoscroll
font size
0
reset
how to read this tab
guitar tuner
Tab Pro tools
  • play this tab
  • loop segment
  • change instrument
  • show fretboard
  • metronome
×
Best way to learn
"Final Exit"
Autoscroll
slow
fast
+/-
esc
set tempo
stop
Contributor
Difficulty
intermediate
"Final Exit" by Fear Factory
Track 10 from the CD "Mechanize"

Tabbed by: Brenton Seifert
bseifertguitar@gmail.com
myspace.com/breathtakerx

7-String Guitar tuned a Whole Step Down (A D G C F A D)

D|-----------------------------------------------------|
A|-------0------------0------------0------------0------|
F|---0-----0------0-----0------0-----0------0-----0----|
C|---------------------------------------------------0-|
G|-3---3--------3---3------3---------------------------|
D|---------------------------3---3------3-2---2--------|
A|-----------------------------------------------------|


|----------------------------------------------------------|
|-------0------------0--------------0---------------0------|
|---0-----0------0-----0-------0------0--------0------0----|
|--------------------------------------------------------0-|
|-3---3--------3---3------3/10---10------10/12---12--------|
|----------------------------------------------------------|
|----------------------------------------------------------|


|---------------------------------------------------|
|---------------------------------------------------|
|---------------------------------------------------|
|---------------------------------------------------|
|---------------------------------------------------|
|---------------------------------------------------|
|-1-1-1--1--1--1--1--1-1-1--1--1--1--1--1-1-1--1--1-|


|---------------------------------------------------|
|---------------------------------------------------|
|---------------------------------------------------|
|---------------------------------------------------|
|---------------------------------------------------|
|---------------------------------------------------|
|-1-1-1--1--1--1--1--1-1-1--1--1--1--1--1-1-1--1--1-|


|---------------------------------------------------|
|---------------------------------------------------|
|---------------------------------------------------|
|---------------------------------------------------|
|---------------------------------------------------|
|---------------------------------------------------|
|-8-8-8--8--8--8--8--8-8-8--8--8--8--8--8-8-8--8--8-|


|---------------------------------------------------|
|---------------------------------------------------|
|---------------------------------------------------|
|---------------------------------------------------|
|---------------------------------------------------|
|---------------------------------------------------|
|-7-7-7--7--7--7--7--7-7-7--7--7--7--7--3-3-3--3--3-|


(2nd ending)
|----------------------------------------------------------------------|
|----------------------------------------------------------------------|
|----------------------------------------------------------------------|
|----------------------------------------------------------------------|
|----------------------------------------------------------------------|
|----------------------------------------------------------------------|
|-10-10-10--10--10--10--10--10-10-10--10--10--10--10--10-10-10--10--10-|


|-----------------------------------------------------|
|-------0------------0------------0------------0------|
|---0-----0------0-----0------0-----0------0-----0----|
|-----------------------------------------------------|
|-3---3--------3---3------3---------------------------|
|---------------------------3---3------3-2---2--------|
|---------------------------------------------------3-|


|----------------------------------------------------|
|-------0------------0------------0-----------0------|
|---0-----0------0-----0------0-----0-----0-----0----|
|----------------------------------------------------|
|-3---3--------3---3------3--------------------------|
|---------------------------3---3-----3-5---5--------|
|--------------------------------------------------3-|


|-----------------------------------------------------------------|
|-----------------------------------------------------------------|
|-----------------------------------------------------------------|
|-----------------------------------------------------------------|
|-3-3-3-3-3-3-3-3-3-3-3-3-3-3-3-3-3-3-3-3-3-3-3-3-3-3-3-3-3-3-3-3-|
|-3-3-3-3-3-3-3-3-3-3-3-3-3-3-3-3-3-3-3-3-3-3-3-3-3-3-3-3-3-3-3-3-|
|-1-1-1-1-1-1-1-1-1-1-1-1-1-1-1-1-1-1-1-1-1-1-1-1-1-1-1-1-1-1-1-1-|


|-----------------------------------------------------------------|
|-----------------------------------------------------------------|
|-----------------------------------------------------------------|
|-5-5-5-5-5-5-5-5-5-5-5-5-5-5-5-5-4-4-4-4-4-4-4-4-4-4-4-4---------|
|-5-5-5-5-5-5-5-5-5-5-5-5-5-5-5-5-4-4-4-4-4-4-4-4-4-4-4-4-5-5-5-5-|
|-3-3-3-3-3-3-3-3-3-3-3-3-3-3-3-3-2-2-2-2-2-2-2-2-2-2-2-2-5-5-5-5-|
|---------------------------------------------------------3-3-3-3-|


|-----------------------------------------------------------------|
|-----------------------------------------------------------------|
|-----------------------------------------------------------------|
|-----------------------------------------------------------------|
|-3-3-3-3-3-3-3-3-3-3-3-3-3-3-3-3-3-3-3-3-3-3-3-3-3-3-3-3-3-3-3-3-|
|-3-3-3-3-3-3-3-3-3-3-3-3-3-3-3-3-3-3-3-3-3-3-3-3-3-3-3-3-3-3-3-3-|
|-1-1-1-1-1-1-1-1-1-1-1-1-1-1-1-1-1-1-1-1-1-1-1-1-1-1-1-1-1-1-1-1-|


|-----------------------------------------------------------------|
|-----------------------------------------------------------------|
|-----------------------------------------------------------------|
|-5-5-5-5-5-5-5-5-5-5-5-5-5-5-5-5-7-7-7-7-7-7-7-7-7-7-7-7---------|
|-5-5-5-5-5-5-5-5-5-5-5-5-5-5-5-5-7-7-7-7-7-7-7-7-7-7-7-7-5-5-5-5-|
|-3-3-3-3-3-3-3-3-3-3-3-3-3-3-3-3-5-5-5-5-5-5-5-5-5-5-5-5-5-5-5-5-|
|---------------------------------------------------------3-3-3-3-|


|---------------------------------------------------|
|---------------------------------------------------|
|---------------------------------------------------|
|---------------------------------------------------|
|---------------------------------------------------|
|---------------------------------------------------|
|-1-1-1--1--1--1--1--1-1-1--1--1--1--1--1-1-1--1--1-|


|------------------------------------------|
|------------------------------------------|
|------------------------------------------|
|------------------------------------------|
|------------------------------------------|
|------------------------------------------|
|-1-1-1--1--1--1--1--1-1-1--1--1--1--1---1-|

(2:41)
|----------------------------------------------------------|
|----------------------------------------------------------|
|----------------------------------------------------------|
|----------------------------------------------------------|
|----------------------------------------------------------|
|----------------------------------------------------------|
|-1-1-1----1-1-1----1-1-1--1-1-1--1-1-1---1-1-1-1--1-1-1-1-|


|----------------------------------------------------------|
|----------------------------------------------------------|
|----------------------------------------------------------|
|----------------------------------------------------------|
|----------------------------------------------------------|
|----------------------------------------------------------|
|-1-1-1----1-1-1----1-1-1--1-1-1--1-1-1---1-1-1-1--1-1-1-1-|


|----------------------------------------------------------|
|----------------------------------------------------------|
|----------------------------------------------------------|
|----------------------------------------------------------|
|----------------------------------------------------------|
|----------------------------------------------------------|
|-8-8-8----8-8-8----8-8-8--8-8-8--8-8-8---8-8-8-8--8-8-8-8-|


|----------------------------------------------------------|
|----------------------------------------------------------|
|----------------------------------------------------------|
|----------------------------------------------------------|
|----------------------------------------------------------|
|----------------------------------------------------------|
|-7-7-7----7-7-7----7-7-7--7-7-7--7-7-7---3-3-3-3--3-3-3-3-|

(2nd Ending)
|---------------------------------------------------------------------------------|
|---------------------------------------------------------------------------------|
|---------------------------------------------------------------------------------|
|---------------------------------------------------------------------------------|
|---------------------------------------------------------------------------------|
|---------------------------------------------------------------------------------|
|-10-10-10----10-10-10----10-10-10--10-10-10--10-10-10---10-10-10-10--10-10-10-10-|

(Last Variation)
|----------------------------------------------------------------|
|----------------------------------------------------------------|
|----------------------------------------------------------------|
|----------------------------------------------------------------|
|----------------------------------------------------------------|
|----------------------------------------------------------------|
|-10-10-10----10-10-10----10-10-10--10-10-10--10-10-10--10-10-10-|




************************************

| /   slide up
| \   slide down
| h   hammer-on
| p   pull-off
| ~   vibrato
| +   harmonic
| x   Mute note
| b   Bend
| pb  Pre-bend
| br  Bend release
| pbr Pre-bend release
| brb Bend release bend

************************************


comments
print report bad tab
I want to post or [tab]
guest
You may want to rate the tab now too:
select rating
Please do not post tabs as comments. Select "correction" instead!