Oops, an error
Loading. Please wait.

Flashpoint Bass Tab

version 2
version 2

Whole song

Interactive

114 views 1 this week
no commentswrite comment
1 2 3 4 5
please rate
add to favorites
launch autoscroll
font size
0
reset
guitar tuner
Autoscroll
slow
fast
+/-
esc
set tempo
stop
Help us to improve Ultimate-Guitar.com Take our survey!
×
Author
Band: Fear Factory
Album: Demanufacture
Song: Flashpoint
Tuning 5-string: B E A D G
Tabbed By: MetalBass

First drums then the bass comes in

Intro Paty I
G --------|
D --------|
A --------|
E --------|
B -2/7\2--|

Part II / Verse / Chorus
G ------------|
D ------------|
A ------------| 24x
E ----3---33--|
B -2-2--22----|

Pre Chorus            Listen When to play these last 3 parts
G ------------------|------------------|---------------|-------|
D ------4x----------|------------------|---------------|-------|
A ------------------|------------------|---------------|-------|
E ------------------|------------------|---------------|-------|
B -3-3-3-3-3-3-3-3--|-1-1-1-1-1-1-1-1--|1-1-1-1-1-346--|--467--|

Chorus 3x

Chorus variation
G -------------|
D -------------|
A -------------| 1x
E ----3--------|
B -2-2--22-22--|

Chorus 4x

After Chorus
G ---------------------------|
D ---------------------------|
A ---------------------------|
E -3----52----51----30----2--| 2x
B ---------------------------|

Bridge (listen for rhythem)
G ----------------------------------..
D ----------------------------------..
A ----------------------------------..
E -3-33-3-33333333--2-22-2-22222222-..
B ----------------------------------..

G -----------------------------------------|
D -----------------------------------------|
A -----------------------------------------|
E -1-11-1-11111111--0-00-00000-------------| 4x
B -----------------------------333-333-33--|

Pre-Chorus1x
Chorus 3x
Chorus Variation 1x
Chorus 3x
Chorus Variation 1x (this is also the end)

That's It Have Fun
Greetings ClosedRoad
Suggest correction
Give kudos to tab author, rate the tab!
1 2 3 4 5
comments
print report bad tab
guest
You may want to rate the tab now too:
select rating
Please do not post tabs as comments. Select "correction" instead!