Oops, an error
Loading. Please wait.

Hunter Killer Bass Tab

version 1
version 1

Whole song

Interactive

475 views 1 this week
no commentswrite comment
1 2 3 4 5
please rate
add to favorites
launch autoscroll
font size
0
reset
guitar tuner
Autoscroll
slow
fast
+/-
esc
set tempo
stop
Help us to improve Ultimate-Guitar.com Take our survey!
×
Author
tonedeafidiot 39,216
#----------------------------------PLEASE NOTE---------------------------------#
#This file is the author's own work and represents their interpretation of the #
#song. You may only use this file for private study, scholarship, or research. #
#------------------------------------------------------------------------------#

H-K (HUNTER-KILLER) (Bassline)
As recorded by Fear Factory
(From the 1995 Album DEMANUFACTURE)

Transcribed by an unregistered user
	

Words by Burton C Bell Music by Fear Factory

Gtr I (C F Bb Eb) - 'Bass'

   Intro
    Q=200
   4/4
    Gtr I
    W          W          W          W
||-----------|----------|----------|-------||
||o----------|----------|----------|------o||
||o----------|----------|----------|------o||
||-----------|----------|----------|-------||


    S S E E E H      S S E E E H      S S E E E H      S S E E E S S E E E
||-----------------|----------------|----------------|------------------------||
||o----------------|----------------|----------------|-----------------------o||
||o-------2--------|-------2--------|-------2--------|-------2-2-------2-2---o||
||--4-4-4---4------|-4-4-4---4------|-4-4-4---4------|-4-4-4-----4-4-4--------||


    S S E E E Q  E E   S S E E E Q  E E
||-------------------|------------------|
||o------------------|------------------|
||o-------2----------|-------2----------|
||--4-4-4---4----4---|-4-4-4---4----4---|


  S S E E E Q  E E   S S E E E S S E E E
|------------------|------------------------||
|------------------|-----------------------o||
|-------2----------|-------2-2-------2-2---o||
|-4-4-4---4----4---|-4-4-4-----4-4-4--------||


  S S E E E E E E E   S S E E E E E E E
|-------------------|-------------------|
|-------------------|-------------------|
|-------2-----------|-------2-----------|
|-4-4-4---4---2-4---|-4-4-4---4---2-4---|


  S S E E E E E E E   S S E E E S S E E E
|-------------------|---------------------|
|-------------------|---------------------|
|-------2-----------|-------2-2-------2-2-|
|-4-4-4---4---2-4---|-4-4-4-----4-4-4-----|


  S S E E E E E E E   S S E E E E E E E   S S E E E E E E E   W
|-------------------|-------------------|-------------------|------|
|-------------------|-------------------|-------------------|------|
|-------2-----------|-------2-----------|-------2-----------|------|
|-4-4-4---4---2-4---|-4-4-4---4---2-4---|-4-4-4---4---2-4---|------|


   Verse
    S S E E E E E E E   S S E E E E E Q   3x
||--------------------|-------------------||
||o-------------------|------------------o||
||o-------2-----------|-------2-----5-4--o||
||--4-4-4---4---2-4---|-4-4-4---4---------||


  S S E E E E E E E   S S E E E S S E E E
|-------------------|-----------------------|
|-------------------|-----------------------|
|-------2-----------|-------2-2-------2-2---|
|-4-4-4---4---2-4---|-4-4-4-----4-4-4-------|


    S S E E E +E  E Q    S S E E E +E  E Q   3x
||---------------------|---------------------||
||o--------------------|--------------------o||
||o-------2-------5-4--|-------2-------5-4--o||
||--4-4-4---4-(4)------|-4-4-4---4-(4)-------||


  S S E E E +E  E Q    S S E E E S S E E E
|--------------------|-----------------------|
|--------------------|-----------------------|
|-------2-------5-4--|-------2-2-------2-2---|
|-4-4-4---4-(4)------|-4-4-4-----4-4-4-------|


   Chorus
    W          W          W          W     3x
||-----------|----------|----------|-------||
||o----------|----------|----------|------o||
||o----------|-5--------|-4--------|-2----o||
||--4--------|----------|----------|-------||


  W          W          W          S S E E E S S E E E
|----------|----------|----------|----------------------|
|----------|----------|----------|----------------------|
|----------|-5--------|-4--------|-------2-2-------2-2--|
|-4--------|----------|----------|-4-4-4-----4-4-4------|


    S S E E E +E  E Q    S S E E E +E  E Q   3x
||---------------------|---------------------||
||o--------------------|--------------------o||
||o-------2-------5-4--|-------2-------5-4--o||
||--4-4-4---4-(4)------|-4-4-4---4-(4)-------||


  S S E E E +E  E Q    S S E E E S S E E E
|--------------------|-----------------------|
|--------------------|-----------------------|
|-------2-------5-4--|-------2-2-------2-2---|
|-4-4-4---4-(4)------|-4-4-4-----4-4-4-------|


   Chorus
    S S S S S S S S S S S S S S S S   S S S S S S S S S S S S S S S S
||----------------------------------|---------------------------------|
||o---------------------------------|---------------------------------|
||o---------------------------------|-5-5-5-5-5-5-5-5-5-5-5-5-5-5-5-5-|
||--4-4-4-4-4-4-4-4-4-4-4-4-4-4-4-4-|---------------------------------|


  S S S S S S S S S S S S S S S S   S S S S S S S S S S S S S S S S   4x
|---------------------------------|-----------------------------------||
|---------------------------------|----------------------------------o||
|-4-4-4-4-4-4-4-4-4-4-4-4-4-4-4-4-|-2-2-2-2-2-2-2-2-2-2-2-2-2-2-2-2--o||
|---------------------------------|-----------------------------------||


 Guitar Break
  E E E E E E E E   S S S S S S S S S S S S S S S S   E E E E E E E E
|-----------------|---------------------------------|-----------------|
|-----------------|---------------------------------|-----------------|
|-----------------|---------------------------------|-----------------|
|-5-2-3-4-5-2-3-4-|-4-4-4-4-4-4-4-4-4-4-4-4-4-4-4-4-|-4-1-2-3-4-1-2-3-|


  S S S S S S S S S S E Q    E E E E E E E E
|--------------------------|-----------------|
|--------------------------|-----------------|
|--------------------------|-----------------|
|-2-2-2-2-2-2-2-2-2--------|-5-2-3-4-5-2-3-4-|


  S S S S S S S S S S S S S S S S
|----------------------------------|
|----------------------------------|
|----------------------------------|
|-4-4-4-4-4-4-4-4-4-4-4-4-4-4-4-4--|


  E E E E E E E E   S S S S S S S S E E E E   E E E E E E E E
|-----------------|-------------------------|------------------|
|-----------------|-------------------------|------------------|
|-----------------|-----------------4-3-5-6-|-------------3-2--|
|-4-1-2-3-4-1-2-3-|-2-2-2-2-2-2-2-2---------|-5-2-3-4-5-2------|


  S S S S S S S S S S S S S S S S   E E E E E E E E   S S S S S S S S E E E E
|---------------------------------|-----------------|-------------------------|
|---------------------------------|-----------------|-------------------------|
|---------------------------------|-----------------|-----------------4-3-5-6-|
|-4-4-4-4-4-4-4-4-4-4-4-4-4-4-4-4-|-4-1-2-3-4-1-2-3-|-2-2-2-2-2-2-2-2---------|


  E E E E E E E E   S S S S S S S S S S S S S S S S   E E E E E E E E
|-----------------|---------------------------------|-----------------|
|-----------------|---------------------------------|-----------------|
|-------------3-2-|---------------------------------|-----------------|
|-5-2-3-4-5-2-----|-4-4-4-4-4-4-4-4-4-4-4-4-4-4-4-4-|-4-1-2-3-4-1-2-3-|


  S S S S S S S S E E E E   E E E E E E E E   S S S S S S S S S S S S S S S S
|-------------------------|-----------------|---------------------------------|
|-------------------------|-----------------|---------------------------------|
|-----------------4-3-5-6-|-------------3-2-|---------------------------------|
|-2-2-2-2-2-2-2-2---------|-5-2-3-4-5-2-----|-4-4-4-4-4-4-4-4-4-4-4-4-4-4-4-4-|


  E E E E E E E E   S S S S S S S S E E E E   E E E E E E E E
|-----------------|-------------------------|------------------|
|-----------------|-------------------------|------------------|
|-----------------|-----------------4-3-5-6-|-------------3-2--|
|-4-1-2-3-4-1-2-3-|-2-2-2-2-2-2-2-2---------|-5-2-3-4-5-2------|


  S S S S S S S S S S S S S S S S   E E E E E E E E   S S S S S S S S E E E E
|---------------------------------|-----------------|-------------------------|
|---------------------------------|-----------------|-------------------------|
|---------------------------------|-----------------|-----------------4-3-5-6-|
|-4-4-4-4-4-4-4-4-4-4-4-4-4-4-4-4-|-4-1-2-3-4-1-2-3-|-2-2-2-2-2-2-2-2---------|


  E E E E E E E E   E E E E E E E E   S S S S S S S S S S S S S S S S
|-----------------|-----------------|---------------------------------|
|-----------------|-----------------|---------------------------------|
|-5-4-6-7-5-4-6-7-|-5-4-6-7-5-4-6-7-|-5-5-4-4-6-6-7-7-5-5-4-4-6-6-7-7-|
|-----------------|-----------------|---------------------------------|


                                     Bridge
  S S S S S S S S S S S S S S S S     E E E E E E E E   E E E E E E Q   3x
|---------------------------------||------------------|-----------------||
|---------------------------------||o-----------------|----------------o||
|-5-5-4-4-6-6-7-7-5-5-4-4-6-6-7-7-||o-----------------|----------------o||
|---------------------------------||--4-3-5-6-4-3-5-6-|-4-3-5-6-4-------||


  E E E E E E E E   E E E E S S S S S S S S   W          +W
|-----------------|-------------------------|----------|--------|
|-----------------|-------------------------|----------|--------|
|-----------------|-------------------------|----------|--------|
|-4-3-5-6-4-3-5-6-|-4-3-5-6-4-4-4-4-4-4-4-4-|-4--------|-(4)----|


    W          +W          3x S S E E E S S E E E   S S E E E S S E E E
||-----------|-------------||---------------------|---------------------|
||o----------|------------o||---------------------|---------------------|
||o----------|------------o||-------2-2-------2-2-|-------2-2-------2-2-|
||--4--------|-(4)---------||-4-4-4-----4-4-4-----|-4-4-4-----4-4-4-----|


  S S E E E S S E E E   S S S S S S S S S S S S S S S S   S S E E E +E  E Q
|---------------------|---------------------------------|---------------------|
|---------------------|---------------------------------|---------------------|
|-------2-2-------2-2-|---------------------------------|-------2-------5-4---|
|-4-4-4-----4-4-4-----|-4-4-4-4-4-4-4-4-4-4-4-4-4-4-4-4-|-4-4-4---4-(4)-------|


    S S E E E +E  E Q    S S E E E +E  E Q   3x
||---------------------|---------------------||
||o--------------------|--------------------o||
||o-------2-------5-4--|-------2-------5-4--o||
||--4-4-4---4-(4)------|-4-4-4---4-(4)-------||


  S S E E E S S E E E   S S E E E +E  E Q
|---------------------|----------------------|
|---------------------|----------------------|
|-------2-2-------2-2-|-------2-------5-4----|
|-4-4-4-----4-4-4-----|-4-4-4---4-(4)--------|


    S S E E E +E  E Q    S S E E E +E  E Q   3x S S E E E S S E E E
||---------------------|---------------------||---------------------|
||o--------------------|--------------------o||---------------------|
||o-------2-------5-4--|-------2-------5-4--o||-------2-2-------2-2-|
||--4-4-4---4-(4)------|-4-4-4---4-(4)-------||-4-4-4-----4-4-4-----|


   Chorus
    S S S S S S S S S S S S S S S S   S S S S S S S S S S S S S S S S
||----------------------------------|---------------------------------|
||o---------------------------------|---------------------------------|
||o---------------------------------|-5-5-5-5-5-5-5-5-5-5-5-5-5-5-5-5-|
||--4-4-4-4-4-4-4-4-4-4-4-4-4-4-4-4-|---------------------------------|


  S S S S S S S S S S S S S S S S   S S S S S S S S S S S S S S S S   4x
|---------------------------------|-----------------------------------||
|---------------------------------|----------------------------------o||
|-4-4-4-4-4-4-4-4-4-4-4-4-4-4-4-4-|-2-2-2-2-2-2-2-2-2-2-2-2-2-2-2-2--o||
|---------------------------------|-----------------------------------||


  Q  Q  Q  E E   Q  Q  Q  E E   Q  Q  Q  E E   E E E E E E E E
|--------------|--------------|--------------|------------------|
|--------------|--------------|--------------|------------------|
|--------------|--------------|--------------|------------------|
|-4--4--4--4-4-|-2--2--2--2-2-|-5--5--5--5-5-|-4-4-4-4-4-4-4-4--|


  Q  Q  Q  E E   Q  Q  Q  E E   Q  Q  Q  E E
|--------------|--------------|--------------|
|--------------|--------------|--------------|
|--------------|--------------|--------------|
|-4--4--4--4-4-|-2--2--2--2-2-|-5--5--5--5-5-|


  S S S S S S S S S S S S S S S S   E E E E E E E E
|---------------------------------|-----------------|
|---------------------------------|-----------------|
|---------------------------------|-------------3-2-|
|-4-4-4-4-4-4-4-4-4-4-4-4-4-4-4-4-|-5-2-3-4-5-2-----|


  S S S S S S S S S S S S S S S S   E E E E E E E E   S S S S S S S S E E E E
|---------------------------------|-----------------|-------------------------|
|---------------------------------|-----------------|-------------------------|
|---------------------------------|-----------------|-----------------4-3-5-6-|
|-4-4-4-4-4-4-4-4-4-4-4-4-4-4-4-4-|-4-1-2-3-4-1-2-3-|-2-2-2-2-2-2-2-2---------|


  E E E E E E E E   S S S S S S S S S S S S S S S S   E E E E E E E E
|-----------------|---------------------------------|-----------------|
|-----------------|---------------------------------|-----------------|
|-------------3-2-|---------------------------------|-----------------|
|-5-2-3-4-5-2-----|-4-4-4-4-4-4-4-4-4-4-4-4-4-4-4-4-|-4-1-2-3-4-1-2-3-|


  S S S S S S S S E E E E   E E E E E E E E   S S S S S S S S S S S S S S S S
|-------------------------|-----------------|---------------------------------|
|-------------------------|-----------------|---------------------------------|
|-----------------4-3-5-6-|-------------3-2-|---------------------------------|
|-2-2-2-2-2-2-2-2---------|-5-2-3-4-5-2-----|-4-4-4-4-4-4-4-4-4-4-4-4-4-4-4-4-|


  E E E E E E E E   S S S S S S S S E E E E   E E E E E E E E
|-----------------|-------------------------|------------------|
|-----------------|-------------------------|------------------|
|-----------------|-----------------4-3-5-6-|-------------3-2--|
|-4-1-2-3-4-1-2-3-|-2-2-2-2-2-2-2-2---------|-5-2-3-4-5-2------|


  S S S S S S S S S S S S S S S S   E E E E E E E E   S S S S S S S S E E E E
|---------------------------------|-----------------|-------------------------|
|---------------------------------|-----------------|-------------------------|
|---------------------------------|-----------------|-----------------4-3-5-6-|
|-4-4-4-4-4-4-4-4-4-4-4-4-4-4-4-4-|-4-1-2-3-4-1-2-3-|-2-2-2-2-2-2-2-2---------|


  E E E E E E E E   S S S S S S S S S S S S S S S S   E E E E E E E E
|-----------------|---------------------------------|-----------------|
|-----------------|---------------------------------|-----------------|
|-------------3-2-|---------------------------------|-----------------|
|-5-2-3-4-5-2-----|-4-4-4-4-4-4-4-4-4-4-4-4-4-4-4-4-|-4-1-2-3-4-1-2-3-|


  S S S S S S S S E E E E   E E E E E E E E   S S S S S S S S S S S S S S S S
|-------------------------|-----------------|---------------------------------|
|-------------------------|-----------------|---------------------------------|
|-----------------4-3-5-6-|-------------3-2-|---------------------------------|
|-2-2-2-2-2-2-2-2---------|-5-2-3-4-5-2-----|-4-4-4-4-4-4-4-4-4-4-4-4-4-4-4-4-|


  E E E E E E E E   S S S S S S S S E E E E   E E E E E E E E   W
|-----------------|-------------------------|-----------------|------|
|-----------------|-------------------------|-----------------|------|
|-----------------|-----------------4-3-5-6-|-----------------|------|
|-4-1-2-3-4-1-2-3-|-2-2-2-2-2-2-2-2---------|-5-2-3-4-5-2-3-4-|-4----|


  E E E E E E E E   H    E E E E   E E E E E E E E   W
|-----------------|--------------|-----------------|------|
|-----------------|--------------|-----------------|------|
|-----------------|------4-3-5-6-|-----------------|------|
|-4-1-2-3-4-1-2-3-|-2------------|-5-2-3-4-5-2-3-4-|-4----|


                                    Out-Chorus
  E E E E E E E E   H    E E E E     S S S S S S S S S S S S S S S S
|-----------------|--------------||----------------------------------|
|-----------------|--------------||o---------------------------------|
|-----------------|------4-3-5-6-||o---------------------------------|
|-4-1-2-3-4-1-2-3-|-2------------||--4-4-4-4-4-4-4-4-4-4-4-4-4-4-4-4-|


  S S S S S S S S S S S S S S S S   S S S S S S S S S S S S S S S S
|---------------------------------|----------------------------------|
|---------------------------------|----------------------------------|
|-5-5-5-5-5-5-5-5-5-5-5-5-5-5-5-5-|-4-4-4-4-4-4-4-4-4-4-4-4-4-4-4-4--|
|---------------------------------|----------------------------------|


  S S S S S S S S S S S S S S S S  5x S S S S S S S S S S S S S S S S
|----------------------------------||----------------------------------|
|---------------------------------o||----------------------------------|
|-2-2-2-2-2-2-2-2-2-2-2-2-2-2-2-2-o||----------------------------------|
|----------------------------------||-4-4-4-4-4-4-4-4-4-4-4-4-4-4-4-4--|


  S S S S S S S S S S S S S S S S   S S S S S S S S S S S S S S S S
|---------------------------------|----------------------------------|
|---------------------------------|----------------------------------|
|-5-5-5-5-5-5-5-5-5-5-5-5-5-5-5-5-|-4-4-4-4-4-4-4-4-4-4-4-4-4-4-4-4--|
|---------------------------------|----------------------------------|


  S S S S S S S S S S S S S S S S   E E E E Q  Q
|---------------------------------|---------------*|
|---------------------------------|---------------*|
|-2-2-2-2-2-2-2-2-2-2-2-2-2-2-2-2-|---------------*|
|---------------------------------|-4-3-5-6-4-----*|



Duration Legend
---------------
W - whole; H - half; Q - quarter; E - 8th; S - 16th; T - 32nd; X - 64th; a - acciaccatura
+ - note tied to previous; . - note dotted; .. - note double dotted
Uncapitalized letters represent notes that are staccato (1/2 duration)
Irregular groupings are notated above the duration line
Duration letters will always appear directly above the note/fret number it represents the
duration for.  Duration letters with no fret number below them represent rests.  Multi-
bar rests are notated in the form Wxn, where n is the number of bars to rest for.  Low
melody durations appear below the staff

Tablature Legend
----------------
 h   - hammer-on
 p   - pull-off
 b   - bend
 pb  - pre-bend
 r   - bend release (if no number after the r, then release immediately)
 /\  - slide into or out of (from/to "nowhere")
 s   - legato slide
 S   - shift slide
 - natural harmonic
[n]  - artificial harmonic
n(n) - tapped harmonic
 ~   - vibrato
 tr  - trill
 T   - tap
 TP  - trem. picking
 PM  - palm muting
\n/  - tremolo bar dip; n = amount to dip
 \n  - tremolo bar down
 n/  - tremolo bar up
/n\  - tremolo bar inverted dip
 =   - hold bend; also acts as connecting device for hammers/pulls
 <> - volume swell (louder/softer)
 x   - on rhythm slash represents muted slash
 o   - on rhythm slash represents single note slash

Misc Legend
-----------
 |  - bar
||  - double bar
||o - repeat start
o|| - repeat end
*|  - double bar (ending)
 :  - bar (freetime)
 $  - Segno
 &  - Coda
Tempo markers -  = BPM(8/16=s8/s16), where s8 = swing 8ths, s16 = swing 16ths

Suggest correction
What's this?
You can suggest a correction to this tab. Community and Mods will review your correction and vote to approve or reject it.
comments
We did not receive enough feedback on this tab! Please rate:
print report bad tab
1 2 3 4 5
guest
You may want to rate the tab now too:
select rating
Please do not post tabs as comments. Select "correction" instead!