Oops, an error
Loading. Please wait.

Industrial Discipline Tab

1,785 views 6 this week
no commentswrite comment
1 2 3 4 5
accurate
x 3
add to favorites
launch autoscroll
font size
0
reset
how to read this tab
guitar tuner
Tab Pro tools
  • play this tab
  • loop segment
  • change instrument
  • show fretboard
  • metronome
Autoscroll
slow
fast
+/-
esc
set tempo
stop
Contributor
"Industrial Discipline" by Fear Factory
Track 2 from the CD "Mechanize"

Tabbed by: Brenton Seifert
bseifertguitar@gmail.com
myspace.com/breathtakerx

7-String Guitar tuned a Whole Step Down (A D G C F A D)

D|-----------------------------------------|
A|-----------------------------------------|
F|-----------------------------------------|
C|-----------------------------------------|
G|-----------------------------------------|
D|-----------------------------------------|
A|-6---6---6---3-3-5-5-6---6---6---3-3-5-5-|
               .......             .......
(1st Ending)
|------------------------------------------------|
|------------------------------------------------|
|------------------------------------------------|
|------------------------------------------------|
|------------------------------------------------|
|------------------------------------------------|
|-6---6---6---3-3-5-5-6-6-3-3-3--3--6-6-3-3-3--3-|
              .................  .  .........  .
(Addition)
|----------------------------|
|----------------------------|
|----------------------------|
|----------------------------|
|----------------------------|
|----------------------------|
|-6-6-3-3-3--3--6-6-3-3-3--3-|
  .........  .  .........  .

(0:38, 0:47 Endings)
|-----------------|
|-----------------|
|-----------------|
|-----------------|
|-----------------|
|-----------------|
|-5-5-5-5-5-5-5-5-|
  ...............

|-----------------------------------------------------|
|-----------------------------------------------------|
|-----------------------------------------------------|
|-----------------------------------------------------|
|-9------------7-------------------------6------------|
|-9------------5----5-5-5-5-7------------4----4-4-4-4-|
|-7----7-7-7-7--------------5----5-5-5-5--------------|
       .......      .......      .......      .......

|----------------------------------------------------------|
|----------------------------------------------------------|
|----------------------------------------------------------|
|----------------------------------------------------------|
|--------------7----7--------------------------------------|
|-9------------5----5------4-4-4-4-4-4-4-4-4-4-4-4-4-4-4-4-|
|-7----7-7-7-7---------------------------------------------|
       .......             ...............................
(cont.)
|---------------------------------|
|---------------------------------|
|---------------------------------|
|---------------------------------|
|---------------------------------|
|-4-4-4-4-4-4-4-4-4-4-4-4-4-4-4-4-|
|---------------------------------|
  ...............................

|----------------------------------------------|
|----------------------------------------------|
|----------------------------------------------|
|----------------------------------------------|
|----------------------------------------------|
|----------------------------------------------|
|-7-7-7---5-5-5---8-8-8--8-8-8---4-4-4---7-7-7-|
  .....   .....   .....  .....   .....   .....

|---------------------------------------------|
|---------------------------------------------|
|---------------------------------------------|
|---------------------------------------------|
|---------------------------------------------|
|-9----7---10---10----------------------------|
|-7----5----8----8----8-8-8-8-8-8-8-8-8-8-8-8-|
                      .......................

|---------------------------------------------|
|---------------------------------------------|
|---------------------------------------------|
|---------------------------------------------|
|---------------------------------------------|
|-9----7---10----6----------------------------|
|-7----5----8----4----4-4-4-4-4-4-4-4-4-4-4-4-|
                      .......................

|---------------------------------------------|
|---------------------------------------------|
|---------------------------------------------|
|---------------------------------------------|
|---------------------------------------------|
|-9-----7----10--10---------------------------|
|-7-0-0-5-0-0-8-0-8-0-8-8-8-8-8-8-8-8-8-8-8-8-|
    ...   ...   .   .........................

|---------------------------------------------|
|---------------------------------------------|
|---------------------------------------------|
|---------------------------------------------|
|---------------------------------------------|
|-9-----7----10---6---------------------------|
|-7-0-0-5-0-0-8-0-4-0-4-4-4-4-4-4-4-4-4-4-4-4-|
    ...   ...   .   .........................

|---------------------------------|
|---------------------------------|
|---------------------------------|
|---------------------------------|
|---------------------------------|
|-------------------------4-4-4-4-|
|-7-7-7-7-7-7-7-7-7-7-7-7---------|
  ...............................

|---------------------------------|
|---------------------------------|
|---------------------------------|
|---------------------------------|
|---------------------------------|
|-5-5-5-5-5-5-5-5-5-5-5-5-5-5-5-5-|
|---------------------------------|
  ............................... 

|---------------------------------|
|---------------------------------|
|---------------------------------|
|---------------------------------|
|---------------------------------|
|-------------------------5-5-5-5-|
|-5-5-5-5-5-5-5-5-5-5-5-5---------|
  ...............................

|---------------------------------|
|---------------------------------|
|---------------------------------|
|---------------------------------|
|---------------------------------|
|-4-4-4-4-4-4-4-4-4-4-4-4-4-4-4-4-|
|---------------------------------|
  ...............................

|---------------------------------|
|---------------------------------|
|---------------------------------|
|---------------------------------|
|---------------------------------|
|-------------------------4-4-4-4-|
|-7-7-7-7-7-7-7-7-7-7-7-7---------|
  ...............................

|---------------------------------|
|---------------------------------|
|---------------------------------|
|---------------------------------|
|---------------------------------|
|-5-5-5-5-5-5-5-5-5-5-5-5-5-------|
|---------------------------------|
  .........................

|---------------------------------|
|---------------------------------|
|---------------------------------|
|---------------------------------|
|---------------------------------|
|-4-4-4-4-4-4-4-4-4-4-4-4-4-4-4-4-|
|---------------------------------|
  ...............................

|---------------------------------|
|---------------------------------|
|---------------------------------|
|---------------------------------|
|---------------------------------|
|-4-4-4-4-4-4-4-4-4-4-4-4-4-4-4-4-|
|---------------------------------|
  ...............................

                    (1st Ending)
|------------------|-------------0----|
|----0--------0----|----0-----------0-|
|------------------|------------------|
|------------------|------------------|
|------------------|------------------|
|----------5-----5-|----------4-------|
|-7-----7----------|-5-----5----------|

(2nd Ending)
|---------------------------------|
|---------------------------------|
|---------------------------------|
|---------------------------------|
|---------------------------------|
|-4-4-4-4-4-4-4-4-4-4-4-4-4-4-4-4-|
|---------------------------------|
  ...............................

|---------------------------------|
|---------------------------------|
|---------------------------------|
|---------------------------------|
|---------------------------------|
|-4-4-4-4-4-4-4-4-4-4-4-4-4-4-4-4-|
|---------------------------------|
  ...............................


************************************

| /   slide up
| \   slide down
| h   hammer-on
| p   pull-off
| ~   vibrato
| +   harmonic
| x   Mute note
| b   Bend
| pb  Pre-bend
| br  Bend release
| pbr Pre-bend release
| brb Bend release bend

************************************
comments
We did not receive enough feedback on this tab! Please rate:
print report bad tab
1 2 3 4 5
I want to post or [tab]
guest
You may want to rate the tab now too:
select rating
Please do not post tabs as comments. Select "correction" instead!