Oops, an error
Loading. Please wait.

Invisible Wounds Tab

version 6
version 6

Interactive

2,209 views 3 this week
1 commentread comment
1 2 3 4 5
accurate
x 3
add to favorites
launch autoscroll
font size
0
reset
how to read this tab
guitar tuner
Autoscroll
slow
fast
+/-
esc
set tempo
stop
Help us to improve Ultimate-Guitar.com Take our survey!
×
Author
Difficulty
Tuning
intermediate
D A D G B E
Transposed for six-string guitars by grymmr34p3r.
Fear Factory
Invisible Wounds (Dark Bodies)
Digimortal

Drop D

Intro

S = slide
PM= palm mute
______________________________
Part 1 (clean)

e|----------------------------------|
B|----------------------------------|
G|----------------------------------|
D|---------3-----3-----3-----3h5--5-|
A|----------------------------------|
D|-3---3-3-----3-----3-----3--------|

e|----------------------------------|
B|----------------------------------|
G|----------------------------------|
D|---------3-----3-----3-----3h5--5-|
A|----------------------------------|
D|-1---1-1-----1-----1-----1--------|

e|----------------------------------|
B|----------------------------------|
G|----------------------------------|
D|---------6-----6-----6------------|
A|----------------------------------|
D|-6---6-6-----6-----6-----6-5----6-|

e|----------------------------------|
B|----------------------------------|
G|----------------------------------|
D|---------6-----10----6-----10---8-|
A|----------------------------------|
D|-8---8-8-----8-----8-----8--------|

Part 2 (distorted)

e|----------------------------------|
B|----------------------------------|
G|----------------------------------|
D|-3---3-3-3---3-3---3-3---3s5-5-5--|
A|-3---3-3-3---3-3---3-3---3s5-5-5--|
D|-3---3-3-3---3-3---3-3---3s5-5-5--|

e|----------------------------------|
B|----------------------------------|
G|----------------------------------|
D|-1---1-1-1---1-1---1-1---1s5-5-5--|
A|-1---1-1-1---1-1---1-1---1s5-5-5--|
D|-1---1-1-1---1-1---1-1---1s5-5-5--|

e|----------------------------------|
B|----------------------------------|
G|----------------------------------|
D|-6---6-6-6---6-6---6-6---6-5----6-|
A|-6---6-6-6---6-6---6-6---6-5----6-|
D|-6---6-6-6---6-6---6-6---6-5----6-|

(on this riff, accentuate the first, fifth, ninth, and thirteenth notes)

e|----------------------------------|
B|----------------------------------|
G|----------------------------------|
D|-8-8-8-8-8-8-8-8-8-8-8-8-8--------|
A|-8-8-8-8-8-8-8-8-8-8-8-8-8--------|
D|-8-8-8-8-8-8-8-8-8-8-8-8-8-888888-|
PM                           ******
_________________________________________________
Main clean riff

First part is the same as Intro Part 1, then

e|---------------------------1------|
B|---------1-----1-----1-------1----|
G|-------------------------------1--|
D|----------------------------------|
A|----------------------------------|
D|-3---3-3-----3-----3-----3--------|

e|---------------------------1------|
B|---------1-----1-----1-------1----|
G|-------------------------------1--|
D|----------------------------------|
A|----------------------------------|
D|-1---1-1-----1-----1-----1--------|

e|----------------------------------|
B|----------------------------------|
G|----------------------------------|
D|---------6-----6-----6------------|
A|----------------------------------|
D|-6---6-6-----6-----6-----6-5----6-|

e|----------------------------------|
B|----------------------------------|
G|----------------------------------|
D|----------------------------------|
A|----------------------------------|
D|-8--------------------------------|
_______________________________________________

Distorted Riff 1

first part is the same as Intro Part 2, then

e|----------------------------------|
B|----------------------------------|
G|----------------------------------|
D|---------3-----3-----0-----5---5--|
A|----------------------------------|
D|-3---3-3-----3-----3-----3--------|

e|----------------------------------|
B|----------------------------------|
G|----------------------------------|
D|---------3-----3-----0-----5---5--|
A|----------------------------------|
D|-1---1-1-----1-----1-----1--------|

e|----------------------------------|
B|----------------------------------|
G|----------------------------------|
D|---------6-----5-----6-----5----6-|
A|----------------------------------|
D|-6---6-6-----6-----6-----6--------|

(on this riff, accentuate the first, fifth, ninth, and thirteenth notes)

e|----------------------------------|
B|----------------------------------|
G|----------------------------------|
D|-8-8-8-8-8-8-8-8-8-8-8-8-8--------|
A|-8-8-8-8-8-8-8-8-8-8-8-8-8--------|
D|-8-8-8-8-8-8-8-8-8-8-8-8-8-888888-|
PM                           ******
____________________________________________________
Verse 2 edited clean riff

Replace the first two bars of the main clean riff with:

e|----------------------------------|
B|----------------------------------|
G|----------------------------------|
D|----------------------------------|
A|----------------------------------|
D|-3--------------------------p0----|

                                slow slide up
e|----------------------------------|
B|----------------------------------|
G|----------------------------------|
D|----------------------------------|
A|----------------------------------|
D|-1--------------------------p0s/--|

Then it's the rest of the main clean riff.
______________________________________________________

Distorted riff 2

Intro Part 2, then

you gotta really like, dig into the palm muted parts to make it sound right.

e|----------------------------------|
B|----------------------------------|
G|----------------------------------|
D|-3---3-3-3---3-3-3---3-3-3s5-5-5--|
A|-3---3-3-3---3-3-3---3-3-3s5-5-5--|
D|-3---3-3-3---3-3-3---3-3-3s5-5-5--|
PM     * *     * *     * *

e|----------------------------------|
B|----------------------------------|
G|----------------------------------|
D|-1---1-1-1---1-1-1---1-1-1s5-5-5--|
A|-1---1-1-1---1-1-1---1-1-1s5-5-5--|
D|-1---1-1-1---1-1-1---1-1-1s5-5-5--|
PM     * *     * *     * *

e|----------------------------------|
B|----------------------------------|
G|----------------------------------|
D|-6---6-6-6---6-6-6---6-6-6s5----6-|
A|-6---6-6-6---6-6-6---6-6-6s5----6-|
D|-6---6-6-6---6-6-6---6-6-6s5----6-|
PM     * *     * *     * *

e|----------------------------------|
B|----------------------------------|
G|----------------------------------|
D|----------------------------------|
A|----------------------------------|
D|----------------------------------|
_______________________________________________
Breakdown
(this is actually an octave or two above what dino plays, which us six-stringers can't do xD)

e|--------------------------------------------------|
B|--------------------------------------------------|
G|--------------------------------------------------|
D|-6p5---------6p5---------6p5----------------------|
A|-6p5---------6p5---------6p5----------------------|
D|-6p5---6-665-6p5---6-665-6p5---6-665-666666666666-|
PM       * ***       * ***       * *** ************

e|--------------------------------------------|
B|--------------------------------------------|
G|--------------------------------------------|
D|-6p5---------6p5---------6p5----------------|
A|-6p5---------6p5---------6p5----------------|
D|-6p5---6-665-6p5---6-665-6p5---6-665--------|
PM       * ***       * ***       * ***


e|--------------------------------------------------|
B|--------------------------------------------------|
G|--------------------------------------------------|
D|-6p5---------6p5---------6p5----------------------|
A|-6p5---------6p5---------6p5----------------------|
D|-6p5---6-665-6p5---6-665-6p5---6-665-666666666666-|
PM       * ***       * ***       * *** ************


e|--------------------------------------------------|
B|--------------------------------------------------|
G|--------------------------------------------------|
D|-6p5---------6p5---------6p5----------------------|
A|-6p5---------6p5---------6p5----------------------|
D|-6p5---6-665-6p5---6-665-6p5---6-665-666666666666-|
PM       * ***       * ***       * *** ************
___________________________________________________

Post-Breakdown Clean part

part 1

e|----------------------------------|
B|----------------------------------|
G|----------------------------------|
D|---------3-----3-----0-----5---5--|
A|----------------------------------|
D|-3---3-3-----3-----3-----3--------|

e|----------------------------------|
B|----------------------------------|
G|----------------------------------|
D|---------3-----3-----0-----5---5--|
A|----------------------------------|
D|-1---1-1-----1-----1-----1--------|

e|----------------------------------|
B|----------------------------------|
G|----------------------------------|
D|---------6-----5-----6-----5----6-|
A|----------------------------------|
D|-6---6-6-----6-----6-----6--------|

e|----------------------------------|
B|----------------------------------|
G|----------------------------------|
D|---------6-----5-----6-----5----6-|
A|----------------------------------|
D|-8---8-8-----8-----8-----8--------|

part 2
e|----------------------------------|
B|---------1-----1-----1-----1------|
G|----------------------------------|
D|----------------------------------|
A|----------------------------------|
D|-3---3-3-----3-----3-----3-----3--|

e|----------------------------------|
B|---------1-----1-----1-----1------|
G|----------------------------------|
D|----------------------------------|
A|----------------------------------|
D|-1---1-1-----1-----1-----1-----3--|

e|----------------------------------|
B|----------------------------------|
G|---------5-----5-----5------------|
D|----------------------------------|
A|----------------------------------|
D|-6---6-6-----6-----6-----6-5----6-|

e|----------------------------------|
B|----------------------------------|
G|----------------------------------|
D|----------------------------------|
A|----------------------------------|
D|-8--------------------------------|
________________________________________
The outro is pretty much at first a palm muted version of Part 2 of the intro
Followed by a distorted version of part 1 of the post-breakdown clean part
Then the second part of Distorted Riff 2 played twice, with this part instead of 
the bar of silence:

e|----------------------------------|
B|----------------------------------|
G|----------------------------------|
D|-8-8-8-8-8-8-8-8-8-8-8-8-8--------|
A|-8-8-8-8-8-8-8-8-8-8-8-8-8--------|
D|-8-8-8-8-8-8-8-8-8-8-8-8-8-888888-|
PM   * * *   * * *   * * *   ******
Suggest correction
Give kudos to tab author, rate the tab!
1 2 3 4 5
comments
print report bad tab
1 comment total.
0 reply
peter.buzasi.7 33 wrote on October 17 2013, 03:41 am, edited on July 8 2014, 09:10 am

It's a unique tuning, a 7 string guitar tuned to G standard.

G-C-F-A#-d#-g-c

Maybe Dino uses this tuning on Soulwound and Landfill (Pitchshifter cover), and maybe on Brujeria records, but I'm not sure.

guest
You may want to rate the tab now too:
select rating
Wanna post a correction for this tab? Suggest correction