Oops, an error
Loading. Please wait.

Lifeblind Tab

321 views 1 this week
no commentswrite comment
1 2 3 4 5
please rate
add to favorites
launch autoscroll
font size
0
reset
how to read this tab
guitar tuner
Tab Pro tools
  • play this tab
  • loop segment
  • change instrument
  • show fretboard
  • metronome
×
Best way to learn
"Lifeblind"
Autoscroll
slow
fast
+/-
esc
set tempo
stop
Contributor
Difficulty
intermediate
This took so long to get the timing, figure where p.m.'s are [sorry]. Questions
comments e-mail me at fraberjam@hotmail.com. ENJOY!!!!!!!

Synth, then...

Intro
B |-------------|-------------||4x
F#|-------------|-------------||
D |-------------|-------------||
A |-----R-------|-----R-------||
E |-2-2---------|-2-2---------||
B |-0-0---------|-0-0---------||

Riff 1
B |-------------|-------------||4x
F#|-------------|-------------||
D |-------------|-------------||
A |-----R-------|---R-------R-||
E |-2-2-----2-2-|-2-----2-2---||
B |-0-0-----0-0-|-0-----0-0---||

Riff 1a
B |-------------|-------------|--|--|-------------|-------------||2x
F#|-------------|-------------|-3x--|-------------|-------------||
D |-------------|-------------|--|--|-------------|-------------||
A |-----R-------|-------------|--|--|-----R-------|-----------R-||
E |-2-2-----2---|----2------3-|--|--|-2-2-----2---|----2--2-2---||
B |-0-0-----0-00|-0000-000001-|--|--|-0-0-----0-00|-0000-00-0---||

Riff 2
B |-----------------|-----------------||4x
F#|-----------------|-----------------||
D |-----R-----------|-R---------------||
A |---------3-------|-----3-------3---||
E |-2-2---2-1---2-2-|---2-1---2-2-1---||
B |-0-0---0-----0-0-|---0-----0-0-----||

Play Riff 1a - 2x
Play Riff 2 - 4x

Riff 3
B |-----------------|-----------------||6x
F#|-----------------|-----------------||
D |-----------------|-----------------||
A |-----------------|-3-----------3---||
E |-4-------5-------|-1-1-1-1-1-1-1---||
B |-2-2-2-2-3-3-3-3-|-----------------||

Riff 4
B |-----------------|-----------------||2x
F#|-----------------|-----------------||
D |-----------------|-----------------||
A |-----------------|-----------------||
E |-----------------|-1111111111111111||
B |-2222223322222222|-----------------||

Riff 4a
B |-----------------|-----------------|-----------------|-----------------|
F#|-----------------|-----------------|-----------------|-----------------|
D |-----------------|-----------------|-----------------|-----------------|
A |-----------------|-3---------------|-----------------|-3---------------|
E |-4-----5-4-------|-1---------------|-4-----5-4-------|-1-----------2-2-|
B |-2-----3-2-------|-----------------|-2-----3-2-------|-------------0-0-|

B |-----------------|-----------------|-----------------|-----------------||
F#|-----------------|-----------------|-----------------|-----------------||
D |-----------------|-----------------|-----------------|-----------------||
A |-----------------|-3-----------|3|-|-----------------|-3---------------||
E |-4-----5-4-------|-1-----------2-2-|-4-----5-4-------|-1---------------||
B |-2-----3-2-------|-------------0-0-|-2-----3-2-------|-----------------||
Play Riff 4a - 2x total


Play Riff 1a - 2x
Play Riff 2 - 4x
Play Riff 3 - 6x
Play Riff 4 - 2x
Play Riff 4a - 4x
Play Riff 2 - first half only once
Bass Solo

Lead Into Next Section
B |-----------------||
F#|-----------------||
D |-----------------||
A |-----R-------R---||
E |-2-2-----2-2-----||
B |-0-0-----0-0-----||

Play Riff 2 - 4x

End
B |-----------------||
F#|-----------------||
D |-----------------||
A |-----R-------R---||
E |-2-2-----2-2-----||
B |-0-0-----0-0-----||

The end.

WOOOOOO!!!!!!!!!! Fear Factory is Bitchen!
comments
We did not receive enough feedback on this tab! Please rate:
print report bad tab
1 2 3 4 5
I want to post or [tab]
guest
You may want to rate the tab now too:
select rating
Please do not post tabs as comments. Select "correction" instead!