Oops, an error
Loading. Please wait.

Martyr Tab

version 2
version 2

Whole song

Interactive

1,102 views 3 this week
4 commentsread comments
1 2 3 4 5
1 last vote to show rating
add to favorites
launch autoscroll
font size
0
reset
how to read this tab
guitar tuner
Autoscroll
slow
fast
+/-
esc
set tempo
stop
Help us to improve Ultimate-Guitar.com Take our survey!
×
Author
                                     MARTYR
                           As recorded by Fear Factory
                   (From the 1992 Album SOUL OF A NEW MACHINE)

Words by Burton C Bell

Music by Fear Factory

Gtr I (B E A D F# B) - 'Dino Cazares'

 Intro
  Q=150
  G5 C#5Ab5D5B5    G5 C#5Ab5D5A5    G5 C#5Ab5D5B5    G5 C#5Ab5D5A5
 4/4
  Gtr I
  E. E. Q  E E E   E. E. Q  E E E   E. E. Q  E E E   E. E. Q  E E E
|----------------|----------------|----------------|----------------|
|----------------|----------------|----------------|----------------|
|----------------|----------------|----------------|----------------|
|-5-----6--------|-5-----6----7---|-5-----6--------|-5-----6----7---|
|-3--4--4--5-2---|-3--4--4--5-5---|-3--4--4--5-2---|-3--4--4--5-5---|
|----2-----3-0---|----2-----3-----|----2-----3-0---|----2-----3-----|


  B5
  W          +W           +W           +W
|----------|------------|------------|--------|
|----------|------------|------------|--------|
|----------|------------|------------|--------|
|-2--------|-(2)--------|-(2)--------|-(2)----|
|-2--------|-(2)--------|-(2)--------|-(2)----|
|-0--------|-(0)--------|-(0)--------|-(0)----|


 Verse
  E E Q  H      W          W          W
|-------------|----------|----------|------|
|-------------|----------|----------|------|
|-------------|----------|----------|------|
|-9-----------|----------|----------|------|
|-7-----------|----------|----------|------|
|-------------|----------|----------|------|


   W           +W            W           +W
|-----------|-------------|-----------|---------|
|-----------|-------------|-----------|---------|
|-----------|-------------|-----------|---------|
|-14--------|-(14)--------|-13--------|-(13)----|
|-----------|-------------|-----------|---------|
|-----------|-------------|-----------|---------|


   W           +W            W           +W
|-----------|-------------|-----------|---------|
|-----------|-------------|-----------|---------|
|-----------|-------------|-----------|---------|
|-12--------|-(12)--------|-11--------|-(11)----|
|-----------|-------------|-----------|---------|
|-----------|-------------|-----------|---------|


   Chorus
    G5 C#5   Ab5 D5B5 G5 C#5   Ab5 D5A5 G5 C#5   Ab5 D5B5 G5 C#5   Ab5 D5A5
    E. E. Q  E E E    E. E. Q  E E E    E. E. Q  E E E    E. E. Q  E E E
||------------------|-----------------|-----------------|------------------||
||o-----------------|-----------------|-----------------|-----------------o||
||------------------|-----------------|-----------------|------------------||
||--5-----6---------|-5-----6----7----|-5-----6---------|-5-----6----7-----||
||o-3--4--4--5-2----|-3--4--4--5-5----|-3--4--4--5-2----|-3--4--4--5-5----o||
||-----2-----3-0----|----2-----3------|----2-----3-0----|----2-----3-------||


   Interlude
    PM--------------------------------------------------------------|
    S S S S S S S S S S S S S S S S   S S S S S S S S S S S S S S S S  4x
||----------------------------------|----------------------------------||
||o---------------------------------|---------------------------------o||
||----------------------------------|----------------------------------||
||----------------------------------|----------------------------------||
||o-3-3-3-------4-4-4-4-------------|-3-3-3-------4-4-4-4-----5-5-5-5-o||
||--------2-2-2---------3-3-0-0-0-0-|-------2-2-2---------3-3----------||


    G5 C#5   Ab5 D5B5 G5 C#5   Ab5 D5A5 G5 C#5   Ab5 D5B5 G5 C#5   Ab5 D5A5
    E. E. Q  E E E    E. E. Q  E E E    E. E. Q  E E E    E. E. Q  E E E
||------------------|-----------------|-----------------|------------------||
||o-----------------|-----------------|-----------------|-----------------o||
||------------------|-----------------|-----------------|------------------||
||--5-----6---------|-5-----6----7----|-5-----6---------|-5-----6----7-----||
||o-3--4--4--5-2----|-3--4--4--5-5----|-3--4--4--5-2----|-3--4--4--5-5----o||
||-----2-----3-0----|----2-----3------|----2-----3-0----|----2-----3-------||


    PM--------------------------------------------------------------|
    S S S S S S S S S S S S S S S S   S S S S S S S S S S S S S S S S  4x
||----------------------------------|----------------------------------||
||o---------------------------------|---------------------------------o||
||----------------------------------|----------------------------------||
||----------------------------------|----------------------------------||
||o-3-3-3-------4-4-4-4-------------|-3-3-3-------4-4-4-4-----5-5-5-5-o||
||--------2-2-2---------3-3-0-0-0-0-|-------2-2-2---------3-3----------||


 Guitar Break
  C5    B5                  C5    B5
  PM----|                   PM----|
  E E E E H      W          E E E E H      W
|--------------|----------|--------------|------|
|--------------|----------|--------------|------|
|--------------|----------|--------------|------|
|-3-3-3-2------|----------|-3-3-3-2------|------|
|-3-3-3-2------|----------|-3-3-3-2------|------|
|-1-1-1-0------|----------|-1-1-1-0------|------|


    C5    B5                        C5    B5
    PM----|                         PM----|
    E E E E Q  Q    +E  Q.   H      E E E E Q  Q    +E  Q.   H     3x
||----------------|---------------|---------------|----------------||
||o---------------|---------------|---------------|---------------o||
||----------------|---------------|---------------|----------------||
||--3-3-3-2----2--|-(2)------1----|-3-3-3-2----2--|-(2)------0-----||
||o-3-3-3-2-------|-----0---------|-3-3-3-2-------|-----0---------o||
||--1-1-1-0-------|---------------|-1-1-1-0-------|----------------||


    C5    B5                 Bb     C5    B5                 A
    PM----|                         PM----|
    E E E E Q  Q    +E  Q.   H      E E E E Q  Q    +E  Q.   H
||----------------|---------------|---------------|----------------||
||o---------------|---------------|---------------|---------------o||
||----------------|---------------|---------------|----------------||
||--3-3-3-2----2--|-(2)------5----|-3-3-3-2----2--|-(2)------4-----||
||o-3-3-3-2-------|-----0----6----|-3-3-3-2-------|-----0----5----o||
||--1-1-1-0-------|---------------|-1-1-1-0-------|----------------||


    C5    B5                  C5    B5
    PM----|                   PM----|
    E E E E H      W          E E E E H      W
||---------------|----------|--------------|-------||
||o--------------|----------|--------------|------o||
||---------------|----------|--------------|-------||
||--3-3-3-2------|----------|-3-3-3-2------|-------||
||o-3-3-3-2------|----------|-3-3-3-2------|------o||
||--1-1-1-0------|----------|-1-1-1-0------|-------||


    C5    B5                        C5    B5
    PM----|                         PM----|
    E E E E Q  Q    +E  Q.   H      E E E E Q  Q    +E  Q.   H     3x
||----------------|---------------|---------------|----------------||
||o---------------|---------------|---------------|---------------o||
||----------------|---------------|---------------|----------------||
||--3-3-3-2----2--|-(2)------1----|-3-3-3-2----2--|-(2)------0-----||
||o-3-3-3-2-------|-----0---------|-3-3-3-2-------|-----0---------o||
||--1-1-1-0-------|---------------|-1-1-1-0-------|----------------||


    C5    B5                 Bb     C5    B5                 A
    PM----|                         PM----|
    E E E E Q  Q    +E  Q.   H      E E E E Q  Q    +E  Q.   H
||----------------|---------------|---------------|----------------||
||o---------------|---------------|---------------|---------------o||
||----------------|---------------|---------------|----------------||
||--3-3-3-2----2--|-(2)------5----|-3-3-3-2----2--|-(2)------4-----||
||o-3-3-3-2-------|-----0----6----|-3-3-3-2-------|-----0----5----o||
||--1-1-1-0-------|---------------|-1-1-1-0-------|----------------||


  G5 C#5   Ab5 D5B5 G5 C#5   Ab5 D5A5 G5 C#5   Ab5 D5B5 G5 C#5   Ab5 D5A5
  E. E. Q  E E E    E. E. Q  E E E    E. E. Q  E E E    E. E. Q  E E E
|-----------------|-----------------|-----------------|------------------|
|-----------------|-----------------|-----------------|------------------|
|-----------------|-----------------|-----------------|------------------|
|-5-----6---------|-5-----6----7----|-5-----6---------|-5-----6----7-----|
|-3--4--4--5-2----|-3--4--4--5-5----|-3--4--4--5-2----|-3--4--4--5-5-----|
|----2-----3-0----|----2-----3------|----2-----3-0----|----2-----3-------|


  B5
  W          +W           +W           +W
|----------|------------|------------|--------|
|----------|------------|------------|--------|
|----------|------------|------------|--------|
|-2--------|-(2)--------|-(2)--------|-(2)----|
|-2--------|-(2)--------|-(2)--------|-(2)----|
|-0--------|-(0)--------|-(0)--------|-(0)----|


 Verse 2
  B5
  E E Q  H      W          W          W
|-------------|----------|----------|------|
|-------------|----------|----------|------|
|-------------|----------|----------|------|
|-9-----------|----------|----------|------|
|-7-----------|----------|----------|------|
|-------------|----------|----------|------|


  W          W           W           +W
|----------|----------|-----------|---------|
|----------|----------|-----------|---------|
|----------|----------|-----------|---------|
|----------|----------|-14--------|-(14)----|
|----------|----------|-----------|---------|
|----------|----------|-----------|---------|


   W           +W            W           +W
|-----------|-------------|-----------|---------|
|-----------|-------------|-----------|---------|
|-----------|-------------|-----------|---------|
|-13--------|-(13)--------|-12--------|-(12)----|
|-----------|-------------|-----------|---------|
|-----------|-------------|-----------|---------|


   W           +W
|-----------|---------|
|-----------|---------|
|-----------|---------|
|-11--------|-(11)----|
|-----------|---------|
|-----------|---------|


   Chorus
    G5 C#5   Ab5 D5B5 G5 C#5   Ab5 D5A5 G5 C#5   Ab5 D5B5 G5 C#5   Ab5 D5A5
    E. E. Q  E E E    E. E. Q  E E E    E. E. Q  E E E    E. E. Q  E E E
||------------------|-----------------|-----------------|------------------||
||o-----------------|-----------------|-----------------|-----------------o||
||------------------|-----------------|-----------------|------------------||
||--5-----6---------|-5-----6----7----|-5-----6---------|-5-----6----7-----||
||o-3--4--4--5-2----|-3--4--4--5-5----|-3--4--4--5-2----|-3--4--4--5-5----o||
||-----2-----3-0----|----2-----3------|----2-----3-0----|----2-----3-------||


    PM--------------------------------------------------------------|
    S S S S S S S S S S S S S S S S   S S S S S S S S S S S S S S S S  4x
||----------------------------------|----------------------------------||
||o---------------------------------|---------------------------------o||
||----------------------------------|----------------------------------||
||----------------------------------|----------------------------------||
||o-3-3-3-------4-4-4-4-------------|-3-3-3-------4-4-4-4-----5-5-5-5-o||
||--------2-2-2---------3-3-0-0-0-0-|-------2-2-2---------3-3----------||


  G5           G5           G5
  Q  Q  H      Q  Q  H      Q  Q  H
|------------|------------|------------|
|------------|------------|------------|
|-5----------|-5----------|-5----------|
|-5----------|-5----------|-5----------|
|-3----------|-3----------|-3----------|
|------------|------------|------------|


 Outro
  PM--------------------------------------------------------------|
  S S S S S S S S S S S S S S S S   S S S S S S S S S S S S S S S S
|---------------------------------|----------------------------------|
|---------------------------------|----------------------------------|
|---------------------------------|----------------------------------|
|---------------------------------|----------------------------------|
|-3-3-3-3-4-4-4-4-5-5-5-5-4-4-4-4-|-3-3-3-------4-4-4-4--------------|
|---------------------------------|-------2-2-2---------3-3-0-0-0-0--|


    PM--------------------------------------------------------------|
    S S S S S S S S S S S S S S S S   S S S S S S S S S S S S S S S S  3x
||----------------------------------|----------------------------------||
||o---------------------------------|---------------------------------o||
||----------------------------------|----------------------------------||
||----------------------------------|----------------------------------||
||o-3-3-3-------4-4-4-4-----5-5-5-5-|-3-3-3-------4-4-4-4-------------o||
||--------2-2-2---------3-3---------|-------2-2-2---------3-3-0-0-0-0--||


                                    G5 C#5Ab5D5A5
  PM---------------------------------------------|
  S S S S S S S S S S S S S S S S   E. E. Q  E E E
|---------------------------------|----------------*|
|---------------------------------|----------------*|
|---------------------------------|----------------*|
|---------------------------------|-5-----6----7---*|
|-3-3-3-------4-4-4-4-----5-5-5-5-|-3--4--4--5-5---*|
|-------2-2-2---------3-3---------|----2-----3-----*|


Duration Legend
---------------
W - whole; H - half; Q - quarter; E - 8th; S - 16th; T - 32nd; X - 64th; a - acciaccatura
+ - note tied to previous; . - note dotted; .. - note double dotted
Uncapitalized letters represent notes that are staccato (1/2 duration)
Irregular groupings are notated above the duration line
Duration letters will always appear directly above the note/fret number it represents the
duration for.  Duration letters with no fret number below them represent rests.  Multi-
bar rests are notated in the form Wxn, where n is the number of bars to rest for.  Low
melody durations appear below the staff

Tablature Legend
----------------
 h   - hammer-on
 p   - pull-off
 b   - bend
 pb  - pre-bend
 r   - bend release (if no number after the r, then release immediately)
 /\  - slide into or out of (from/to "nowhere")
 s   - legato slide
 S   - shift slide
  - natural harmonic
[n]  - artificial harmonic
n(n) - tapped harmonic
 ~   - vibrato
 tr  - trill
 T   - tap
 TP  - trem. picking
 PM  - palm muting
\n/  - tremolo bar dip; n = amount to dip
 \n  - tremolo bar down
 n/  - tremolo bar up
/n\  - tremolo bar inverted dip
 =   - hold bend; also acts as connecting device for hammers/pulls
 <>  - volume swell (louder/softer)
 x   - on rhythm slash represents muted slash
 o   - on rhythm slash represents single note slash

Misc Legend
-----------
 |  - bar
||  - double bar
||o - repeat start
o|| - repeat end
*|  - double bar (ending)
 :  - bar (freetime)
 $  - Segno
 &  - Coda
Tempo markers -  = BPM(8/16=s8/s16), where s8 = swing 8ths, s16 = swing 16ths
Suggest correction
Give kudos to tab author, rate the tab!
1 2 3 4 5
comments
print report bad tab
4 comments total. Showing first comments.
-2 reply
Filthy666 31 Dec 19, 2006 11:37 PM

dude...are u ****in retarded?!?!
they use 7 strings not 6 strings!!
so this tab is gunna be wrong and i havnt even tried it yet!!

+1 reply
Def 41 Feb 26, 2007 04:52 PM

on this album they used down tuned 6 strings im fairly sure

+1 reply
Fender Usa 107 Feb 26, 2008 03:34 PM

filthy u ****in nob, dino started using 7 strings on obsolete so shut the **** up you dont know shit, thanks again napalm scum!

guest
You may want to rate the tab now too:
select rating
Wanna post a correction for this tab? Suggest correction