Oops, an error
Loading. Please wait.

Millennium Bass Tab

version 1
version 1

Whole song

Interactive

743 views 1 this week
1 commentread comment
1 2 3 4 5
3 more votes to show rating
add to favorites
launch autoscroll
font size
0
reset
guitar tuner
Autoscroll
slow
fast
+/-
esc
set tempo
stop
Help us to improve Ultimate-Guitar.com Take our survey!
×
Author
Tuning
D A D G B E
Band: Fear Factory
Album: Transgression
Song: Millennium (killing joke cover)
Tuning 4-string: D A D G
Tabbed By ClosedRoad

Intro
First guitar then...

Intro/ Verse     A                B               A       C
G ----------------|----------------|---------------|-------|
D ----------------|----------------|---------------|-------|
A ----------------|----------------|---------------|-------|
D -0-0-0---0---0--|-0-3-2-1-0-3-2--|-0-0-0---0---0-|-1--0--|

play: A 3x
      B 1x
      A 3x

part D
G -----------------|
D -----------------|
A -----3------3h5--|
D -5h7----5h7------|

Verse
Play: A 3x
      B 1x
      A 3x
      C 1x
      A 3x
      B 1x
      A 3x
      D 1x

After Verse
G ----------------------------------------------|
D ----------------------------------------------|
A ----------------------------------------------| 2x
D -1---0-0-0--0--1---0-0-0--0--1---0-0-0--0--1--|

Pre Chorus
G ----------------------------|
D ----------------------------|
A ----------------------------| 6x
D -1--1--1--1---1-0-0--1-0-0--|

Chorus
G ----------------------------------------|
D ----------------------------------------|
A ----------------------------------------| 2x
D -00000000--55555555-88888888-33333333-1-|

After Chorus
G ----------------------------------------------------------------|
D ----------------------------------------------------------------|
A -----------------------------------------------------3-----3h5--|
D -000-000-000--000-000-000--000-000-000--000-000--5h7---5h7------|

verse 2x
after verse 4x
Pre Chorus 8x
Chorus 2x

Bridge
G -----------------------------------------------------|
D -----------------------------------------------------|
A -0----3----0---------------0----3----0---------------| 2x
D --------------00000000------------------00--00-0-00--|

After Verse 4x
Pre Chorus 16x
Chorus 4x
After Chorus 1x

That's it Such an heavy song
Greetings ClosedRoad
Suggest correction
Give kudos to tab author, rate the tab!
1 2 3 4 5
comments
print report bad tab
1 comment total.
0 reply
scorpionx 51 Jul 18, 2010 04:05 PM

I don't think so that it's in D-tuning.

for example In Part "C" where is --E(1)--D(0)-- I hear --E--C#--

Some mistakes...

guest
You may want to rate the tab now too:
select rating
Wanna post a correction for this tab? Suggest correction