Oops, an error
Loading. Please wait.

Moment Of Impact Tab

version 2
version 2

Whole song

Interactive

111 views 1 this week
no commentswrite comment
1 2 3 4 5
please rate
add to favorites
launch autoscroll
font size
0
reset
how to read this tab
guitar tuner
Autoscroll
slow
fast
+/-
esc
set tempo
stop
Help us to improve Ultimate-Guitar.com Take our survey!
×
Author
Difficulty
intermediate
Band:  Fear Factory
Album: Transgression
Song:  Moment Of Impact

Tune 7-string to A D G C F A D

Tune 6-string to A D G C F A

Note: Repeat riffs as needed

Intro & main riff
|-----------------------------------------------------------|
|-----------------------------------------------------------|
|-----------------------------------------------------------|
|-----------------------------------------------------------|
|-----------------------------------------------------------|
|--777-000-000-000-000-000-777-000-777-000-000-000-000-000--|
   ... ... ... ... ... ... ... ... ... ... ... ... ... ...

|-----------------------------------------------------------|
|-----------------------------------------------------------|
|-----------------------------------------------------------|
|-----------------------------------------------------------|
|-----------------------------------------------------------|
|--777-000-777-000-000-000-000-000-777-000-777-000-000-000--|
   ... ... ... ... ... ... ... ... ... ... ... ... ... ...

|-------------------------------|
|-------------------------------|
|-------------------------------|
|--7h10p7--6h9p6--5h8p5--4h7p4--|
|-------------------------------|
|-------------------------------|


Riff A 1st half
|---------------------------------------------------|
|---------------------------------------------------|
|---------------------------------------------------|
|-----------5-----------7-----------8-----------10--|
|-----------5-----------7-----------8-----------10--|
|--33333333-3--55555555-5--66666666-6--88888888-8---|
   ........    ........    ........    ........

Riff A 2nd half end
|--------------------------------------------|
|--------------------------------------------|
|--------------------------------------------|
|-----------5-----------7-----------8--(10)--|
|-----------5-----------7-----------8--(10)--|
|--33333333-3--55555555-5--66666666-6--(8)---|
   ........    ........    ........

Riff A2 2nd time before chrous
|-------------0------------0------------0-------------0--|
|-------------0------------0------------0-------------0--|
|--------------------------------------------------------|
|-----------5------------7------------8------------10----|
|-----------5------------7------------8------------10----|
|--33333333-3---55555555-5---66666666-6---88888888-8-----|
   ........     ........     ........     ........

|-------------0------------0-----------------|
|-------------0------------0-----------------|
|--------------------------------------------|
|-----------5------------7-------------(10)--|
|-----------5------------7-------------(10)--|
|--33333333-3---55555555-5---66666666--(8)---|
   ........     ........     ........

Chorus riff
|----------------------------------------------------------|
|----------------------------------------------------------|
|----------------------------------------------------------|
|--9-------------------------------------9-----------------|
|--7----------------7777-8888------------7-----------------|
|----8888-7777-5555-----------8888-7777----8888-7777-5555--|
     .... .... .... .... .... .... ....    .... .... ....

|---------------------------------------------------------------|
|---------------------------------------------------------------|
|---------------------------------------------------------------|
|------------7h10p7-------9-------------------------------------|
|--7777-8888--------8ph~--7----------------7777-8888------------|
|---------------------------8888-7777-5555-----------8888-7777--|
   .... ....                .... .... .... .... .... .... ....

|--------------------------------------------|
|--------------------------------------------|
|--------------------------------------------|
|--9----------------------------7h10p7-------|
|--7----------------------7h8p7--------8ph~--|
|----8888-7777-5555-7h8p7--------------------|
     .... .... ....

Riff B
|-----------------------------------------------------------|
|-----------------------------------------------------------|
|-----------------------------------------------------------|
|-----------------------------------------------------------|
|-----------------------------------------------------------|
|--11111111-1-1--11111111-1-1-1--00000000-0-0--0-0-0-0-0-0--|
   ........ . .  ........ . . .  ........ . .  . . . . . .

Riff B end
|--------------------------------------------|
|--------------------------------------------|
|--------------------------------------------|
|--------------------------------------------|
|--------------------------------------------|
|--0-0-0-0-0-0--0-0-0-0-0-0--0-0-0-0-0-0--0--|
   . . . . . .  . . . . . .  . . . . . .  .


End riff same as intro but then plays pull offs twice then four.

The End.
Suggest correction
Give kudos to tab author, rate the tab!
1 2 3 4 5
comments
print report bad tab
guest
You may want to rate the tab now too:
select rating
Please do not post tabs as comments. Select "correction" instead!