Oops, an error
Loading. Please wait.

New Breed Tab

version 1
version 1

Whole song

Interactive

810 views 3 this week
1 commentread comment
1 2 3 4 5
please rate
add to favorites
launch autoscroll
font size
0
reset
how to read this tab
guitar tuner
Autoscroll
slow
fast
+/-
esc
set tempo
stop
Help us to improve Ultimate-Guitar.com Take our survey!
×
Artist:  Fear Factory 
Song:  "New Breed" 
Album:  "Demanufacture" 
Label:  Roadrunner Records, copyright 1995, (The All-Blacks B.V.) 
 
Dry Lung Vocal Martyr:  Burton C. Bell 
Heavy Duty Scarifier:  Dino Cazares 
Total Harmonic Distortion:  Christian Olde Wolbers 
Maximum Effective Pulse Generator:  Raymond Herrera 
 
Thanks a lot to Yani and Ray for giving me the opportunity to do this. 
 
My name is Dimitrije Kostic and any questions about this tab or any  
others in the Fear Factory Tablature Archive can be emailed to me at 
                martyr@fearfactory.com 
I will gladly investigate any possible errors in any tablature on this site. 
 
-------------------------------------------------------------- 
 
 
New Breed is relatively simple, compared to other Fear Factory songs.   
The main things here are simply maintaining a constant volume when  
playing live (you don't want part of something to sound really soft),  
and definitely trying to stay on rhythm, which can be fairly difficult  
depending on how long you've played and how focused you stay.  A few  
practices should yield some good results. 
 
 
Tune all strings down a perfect fourth (B, E, A, D, F#, B) 
 
 
LEGEND: 
        
        *    -- palm-mute  
        H    -- hit-on 
        P    -- pull-off 
        ~~~~ -- vibrato 
        A.H. -- Artificial Harmonic 
        N.H. -- Natural Harmonic 
      /    -- slide up 
      \     -- slide down 
      X    -- lay fingers on strings to cause a "thud"; a "dead note" 
 
 
moderately fast speed 
 
 
Riff A 
 
 
|-------------------------------| 
|-------------------------------| 
|-------------------------------| 
|-------------------------------| 
|-------------------------------| 
|-4-3--4-3--4-3--4-3--2-3-4-----| 
 
 
Riff B 
 
 
|-----------------------------------| 
|-----------------------------------| 
|-----------------------------------| 
|-------------4-4--------------9-9--| 
|-6--6--6--6--4-4--6--6--6--6--9-9--| 
|-4--4--4--4--2-2--4--4--4--4--7-7--| 
 
 
Riff C  
 
 
|---------------------------| 
|---------------------------| 
|---------------------------| 
|-6---------4---------5-----| 
|-4----5----2----4----3--4--| 
|---00-3-00---00-2-00----2--| 
    **   **   **   ** 
 
 
Riff D 
 
 
|--------| 
|--------| 
|--------| 
|--------| 
|--------| 
|-2-3-4--| 
 
 
Riff E 
 
 
|---------------------------------------------------| 
|---------------------------------------------------| 
|---------------------------------------------------| 
|-6---------4---------5-----6---------4-------------| 
|-4----5----2----4----3--4--4----5----2----4--2234--| 
|---00-3-00---00-2-00----2----00-3-00---00-2--------| 
    **   **   **   **         **   **   **    **** 
 
 
Riff F 
 
 
|--------------------| 
|--------------------| 
|--------------------| 
|--------------------| 
|--------------------| 
|-23423423423422234--| 
  ***************** 
 
 
Song Structure 
 
 
Riff A 12 times 
 
 
pause while Burton shouts "future" and then  
 
 
Riff A 8 times 
Riff B 1 time 
Riff A 4 times 
Riff B 2 times  
Riff C 4 times 
 
 
pause for 3 1/2 measures while the synth plays Riff A.  On the last 1/2  
measure, the guitar jumps back in 
 
 
Riff D 1 time 
Riff A 8 times 
Riff B 2 times 
Riff C 8 times 
Riff E 4 times 
Riff A 3 times 
Riff F 1 time and end abruptly
Suggest correction What's this?
You can suggest a correction to this tab. Community and Mods will review your correction and vote to approve or reject it.
comments
We did not receive enough feedback on this tab! Please rate:
print report bad tab
1 2 3 4 5
1 comment total.
0 reply
peter.buzasi.7 95 wrote on June 13 2015, 12:06 pm

Riff A
|-------------------------------|
|-------------------------------|
|-------------------------------|
|-------------------------------|
|-------------------------------|
|-4-2--4-2--4-2--4-2--2-3-4-----|

https://www.youtube.com/watch?v=zghXTZDDG44

I want to post or [tab]
guest
You may want to rate the tab now too:
select rating
Please do not post tabs as comments. Select "correction" instead!