Oops, an error
Loading. Please wait.

New Breed Bass Tab

version 2
version 2

Whole song

Interactive

127 views 1 this week
no commentswrite comment
1 2 3 4 5
3 more votes to show rating
add to favorites
launch autoscroll
font size
0
reset
guitar tuner
Autoscroll
slow
fast
+/-
esc
set tempo
stop
Help us to improve Ultimate-Guitar.com Take our survey!
×
Author
Band: Fear Factory
Album: Demanufacture
Song: New Breed
Tuning-5-string: G D A E B
Tabbed By: ClosedRoad

First guitar

Intro / verse
G ------------------|
D ------------------|
A ------------------|
E ------------------| 8x
B -43-43-43-43-234--|

pre Chorus
G ------------------------|
D ------------------------|
A ------------------------|
E --------------------22--| 1x
B -4-4-4-4-22-4-4-4-4-----|

Verse 4x
Pre CHorus 2x

Chorus (difficult to hear someting closew to this I ques)
G ---------------------|
D ---------------------|
A ---------------------|
E -4-------2-------3---| 4x
B ---00300---00200--2--|

rest for a couple of seconds

Bridge
G -------------------|
D -------------------|
A -------------------|
E -------------------| 2x
B -4-4-4-4-x4-4-4-4--|

verse 8x
Pre-Chorus 2x
Chorus 12x
verse 3x

Outro
G --------------------|
D --------------------|
A --------------------|
E --------------------|
B -23423423423422234--|

that's it, this song is realy difficult to hear.
have Fun
Greetings CLosedRoad
Suggest correction
Give kudos to tab author, rate the tab!
1 2 3 4 5
comments
print report bad tab
guest
You may want to rate the tab now too:
select rating
Wanna post a correction for this tab? Suggest correction