Oops, an error
Loading. Please wait.

New Promise Tab

version 1
version 1

Whole song

Interactive

1,235 views 9 this week
no commentswrite comment
1 2 3 4 5
accurate
x 6
add to favorites
launch autoscroll
font size
0
reset
how to read this tab
guitar tuner
Autoscroll
slow
fast
+/-
esc
set tempo
stop
Help us to improve Ultimate-Guitar.com Take our survey!
×
Tuning
D A D G B E
-Fear Factory: New Promise-
-Tabbed by:Rob-

Intro(Acoustic)  I will keep you safe....

E -----------------------------------------|
B ----5-5--6--5--5-------3-3--1--3--3------|
G ---5---5--5--5--5-----1---1--1--1--1-----| x6
D --7-----5--7--7--7---3-----3--3--3--3----|
A -5-------7----------1--------------------|
D -----------------------------------------|
                              End On:
E ----------------------     E ----|
B ----5-5--5--5--5------     B -5--|
G ---5---5--5--5--5----- x4  G -5--|
D --7-----7--7--7--7----     D -7--|
A -5--------------------     A -5--|
D ----------------------     D ----|

Chorus      I promise....

E -------------------------------------------------|
B -------------------------------------------------|
G -------------------------------------------------|
D ------3-0-2------3-0-2------3-0-2--2-3-5-5-3-2---|
A ------3-0-2------3-0-2------3-0-2--2-3-5-5-3-2---|
D -0000-3-0-2-0000-3-0-2-0000-3-0-2--2-3-5-5-3-2---|
PM ....   .   ....   .   ....   .
                                                      x2
E -------------------------------------------------|
B -------------------------------------------------|
G -------------------------------------------------|
D ------3-3-3------3-3-3------3-3-3--2-3-5-5-3-2---|
A ------3-3-3------3-3-3------3-3-3--2-3-5-5-3-2---|
D -3333-3-3-3-3333-3-3-3-3333-3-3-3--2-3-5-5-3-2---|
PM ....   .   ....   .   ....   .


Verse     This I swear....

E -------------------------------------------------|
B -------------------------------------------------|
G -------------------------------------------------| x4
D -000-3-0-3-000-2-0-2-000-3-0-3--2-3-5-5-3-2------|
A -000-3-0-3-000-2-0-2-000-3-0-3--2-3-5-5-3-2------|
D -000-3-0-3-000-2-0-2-000-3-0-3--2-3-5-5-3-2------|
PM ...   .   ...   .   ...   .    . . . . . .

Pre-Chorus   Love is stronger....

E ------------------------------------------|
B ------------------------------------------|
G ------------------------------------------|
D -55555555-33333333-55555555-33333333------|
A -55555555-33333333-55555555-33333333------|
D -55555555-33333333-55555555-33333333------|


Chorus      I promise....

E -------------------------------------------------|
B -------------------------------------------------|
G -------------------------------------------------|
D ------3-0-2------3-0-2------3-0-2--2-3-5-5-3-2---|
A ------3-0-2------3-0-2------3-0-2--2-3-5-5-3-2---|
D -0000-3-0-2-0000-3-0-2-0000-3-0-2--2-3-5-5-3-2---|
PM ....   .   ....   .   ....   .
                                                      x2
E -------------------------------------------------|
B -------------------------------------------------|
G -------------------------------------------------|
D ------3-3-3------3-3-3------3-3-3--2-3-5-5-3-2---|
A ------3-3-3------3-3-3------3-3-3--2-3-5-5-3-2---|
D -3333-3-3-3-3333-3-3-3-3333-3-3-3--2-3-5-5-3-2---|
PM ....   .   ....   .   ....   .


Verse     Trust in these....

E -------------------------------------------------|
B -------------------------------------------------|
G -------------------------------------------------| x4
D -000-3-0-3-000-2-0-2-000-3-0-3--2-3-5-5-3-2------|
A -000-3-0-3-000-2-0-2-000-3-0-3--2-3-5-5-3-2------|
D -000-3-0-3-000-2-0-2-000-3-0-3--2-3-5-5-3-2------|
PM ...   .   ...   .   ...   .    . . . . . .


Pre-Chorus   I can release you from your pain....

E ------------------------------------------|
B ------------------------------------------|
G ------------------------------------------|
D -55555555-33333333-55555555-33333333------|
A -55555555-33333333-55555555-33333333------|
D -55555555-33333333-55555555-33333333------|


Rhythm For Solo

E --------------------------------------------|
B --------------------------------------------|
G --------------------------------------------| x6
D ------3------3---2-3-------3------3---2-3---|
A ------3------3---2-3-------3------3---2-3---|
D -0000-3-0000-3-0-2-3--0000-3-0000-3-0-2-3---|
PM ....   ....   .      ....   ....   .

Solo(Includes Delay)

E ------------------------------------------------------|
B -13--------------------171717171717-151515151515------|
G -15b-------------------141414141414-121212121212------|
D ----12-14-12-12-14-14---------------------------------|
A ---------------------15-------------------------------|
D ------------------------------------------------------|
PM     .  .        .  .

E ------------------------------|
B -15-15-15-15--17-17-17-17-----|
G -17b17b17b17b-19b19b19b19b----| x2
D ------------------------------|
A ------------------------------|
D ------------------------------|

E -------------------------------------------|
B -17171717-15151515-13131313-12121212-7/----|
G -14141414-12121212-10101010--9-9-9-9-7/----|
D -------------------------------------------|
A -------------------------------------------|
D -------------------------------------------|

Interlude

E --------------------------------------------|
B --------------------------------------------|
G --------------------------------------------| x4
D ------3------3---2-3-------3------3---2-3---|
A ------3------3---2-3-------3------3---2-3---|
D -0000-3-0000-3-0-2-3--0000-3-0000-3-0-2-3---|
PM ....   ....   .      ....   ....   .


Pre-Chorus   I can release you from your pain....

E ------------------------------------------|
B ------------------------------------------|
G ------------------------------------------| x2
D -55555555-33333333-55555555-33333333------|
A -55555555-33333333-55555555-33333333------|
D -55555555-33333333-55555555-33333333------|


Chorus      I promise....

E -------------------------------------------------|
B -------------------------------------------------|
G -------------------------------------------------|
D ------3-0-2------3-0-2------3-0-2--2-3-5-5-3-2---|
A ------3-0-2------3-0-2------3-0-2--2-3-5-5-3-2---|
D -0000-3-0-2-0000-3-0-2-0000-3-0-2--2-3-5-5-3-2---|
PM ....   .   ....   .   ....   .
                                                      x4
E -------------------------------------------------|
B -------------------------------------------------|
G -------------------------------------------------|
D ------3-3-3------3-3-3------3-3-3--2-3-5-5-3-2---|
A ------3-3-3------3-3-3------3-3-3--2-3-5-5-3-2---|
D -3333-3-3-3-3333-3-3-3-3333-3-3-3--2-3-5-5-3-2---|
PM ....   .   ....   .   ....   .
Suggest correction
comments
print report bad tab
guest
You may want to rate the tab now too:
select rating
Please do not post tabs as comments. Select "correction" instead!