Oops, an error
Loading. Please wait.

Obsolete Tab

version 1
version 1

Whole song

Interactive

1,091 views 1 this week
no commentswrite comment
1 2 3 4 5
excellent!
x 3
add to favorites
launch autoscroll
font size
0
reset
how to read this tab
guitar tuner
Autoscroll
slow
fast
+/-
esc
set tempo
stop
Help us to improve Ultimate-Guitar.com Take our survey!
×
Author
Song: Obsolete
Band: Fear Factory
Album: Obsolete
Transcribed By: Mitchell Sirie


Tuning: ADGCEA


. = Palm Mute
p = Pull-Off


(Bass Intro)


Lead Into Riff 1   x1
|----------|
|----------|
|----------|
|----------|
|----------|
|-33333333-|
  ........

Intro Riff 1                  x2
|-------------------------------|
|-------------------------------|
|-------------------------------|
|-------------------------------|
|-4--4-4-4--4-4-4--4-4----------|
|-2--2-2-2--2-2-2--2-2-33333333-|
  .  . . .  . . .  . . ........
|-------------------------------------------------------------------|
|-------------------------------------------------------------------|
|-------------------------------------------------------------------|
|-------------------------------------------------------------------|
|-4--4-4-----------4--4-4-----------4--4-4--------------------------|
|-2--2-2-33333333--2--2-2-33333333--2--2-2-333333333333333333333333-|
  .  . . ........  .  . . ........  .  . . ........................

Intro Riff 2                  x3                       x1
|-------------------------------|------------------------|
|-------------------------------|------------------------|
|-------------------------------|------------------------|
|-------------------------------|------------------------|
|-4--4-4-4--4-4-4--4-4----------|-4--4-4-4--4-4-4--4-4-5-|
|-2--2-2-2--2-2-2--2-2-33333333-|-2--2-2-2--2-2-2--2-2-3-|
  .  . . .  . . .  . . ........   .  . . .  . . .  . . .

Verse       x8
|-------------|
|-------------|
|-------------|
|-------------|
|-2-2--2--2-2-|
|-0-0--0--0-0-|
  . .  .  . .

Intro Riff 2                  x3                       x1
|-------------------------------|------------------------|
|-------------------------------|------------------------|
|-------------------------------|------------------------|
|-------------------------------|------------------------|
|-4--4-4-4--4-4-4--4-4----------|-4--4-4-4--4-4-4--4-4-5-|
|-2--2-2-2--2-2-2--2-2-33333333-|-2--2-2-2--2-2-2--2-2-3-|
  .  . . .  . . .  . . ........   .  . . .  . . .  . . .

Verse       x8
|-------------|
|-------------|
|-------------|
|-------------|
|-2-2--2--2-2-|
|-0-0--0--0-0-|
  . .  .  . .

Pre-Chorus                      x4             x4
|---------------------------------|--------------|
|---------------------------------|--------------|
|---------------------------------|--------------|
|---------------------------------|--------------|
|-7-6-7-6--7-9--------------------|-7-6-7-6--7-9-|
|-5-4-5-4--5-7--22222222-00000000-|-5-4-5-4--5-7-|
  . . . .  . .  ........ ........   . . . .  . .

Chorus                                    x4
|-------------------------------------------|
|-------------------------------------------|
|-------------------------------------------|
|-4---------7---------4---------7-----------|
|-2--6-6-6--5--6-6-6--2--6-6-6--5-----------|
|----4-4-4-----4-4-4-----4-4-4-----00000000-|
                                   ........  

Fill                         x3                           x1
|------------------------------|----------------------------|
|------------------------------|----------------------------|
|------------------------------|----------------------------|
|------------------------------|----------------------------|
|-2p0-----5p0-----2p0-----5----|-2p0-----5p0-----2p0--------|
|-----4-4-----4-4-----4-4---0~-|-----4-4-----4-4-----4-4--0-|


(Bass Fill)


Intro Riff 2                  x3                       x1
|-------------------------------|------------------------|
|-------------------------------|------------------------|
|-------------------------------|------------------------|
|-------------------------------|------------------------|
|-4--4-4-4--4-4-4--4-4----------|-4--4-4-4--4-4-4--4-4-5-|
|-2--2-2-2--2-2-2--2-2-33333333-|-2--2-2-2--2-2-2--2-2-3-|
  .  . . .  . . .  . . ........   .  . . .  . . .  . . .

Verse       x8
|-------------|
|-------------|
|-------------|
|-------------|
|-2-2--2--2-2-|
|-0-0--0--0-0-|
  . .  .  . .

Pre-Chorus                      x4             x4
|---------------------------------|--------------|
|---------------------------------|--------------|
|---------------------------------|--------------|
|---------------------------------|--------------|
|-7-6-7-6--7-9--------------------|-7-6-7-6--7-9-|
|-5-4-5-4--5-7--22222222-00000000-|-5-4-5-4--5-7-|
  . . . .  . .  ........ ........   . . . .  . .

Chorus                                    x4
|-------------------------------------------|
|-------------------------------------------|
|-------------------------------------------|
|-4---------7---------4---------7-----------|
|-2--6-6-6--5--6-6-6--2--6-6-6--5-----------|
|----4-4-4-----4-4-4-----4-4-4-----00000000-|
                                   ........  

Fill                         x4
|------------------------------|
|------------------------------|
|------------------------------|
|------------------------------|
|-2p0-----5p0-----2p0-----5----|
|-----4-4-----4-4-----4-4---0~-|


Outro                           x3                              x1
|---------------------------------|-------------------------------|
|---------------------------------|-------------------------------|
|---------7-------------7---------|---------7---------------------|
|-9-6-6-6-7-6-6-6-9-6-6-7-2-2-2-2-|-9-6-6-6-7-6-6-6---9----6------|
|-9-6-6-6-5-6-6-6-9-6-6-5-2-2-2-2-|-9-6-6-6-5-6-6-6---9----6----2-|
|-7-4-4-4---4-4-4-7-4-4---0-0-0-0-|-7-4-4-4---4-4-4---7-7--4-4--0-|
                                                        .    .
Suggest correction
What's this?
You can suggest a correction to this tab. Community and Mods will review your correction and vote to approve or reject it.
comments
We did not receive enough feedback on this tab! Please rate:
print report bad tab
1 2 3 4 5
guest
You may want to rate the tab now too:
select rating
Please do not post tabs as comments. Select "correction" instead!