Oops, an error
Loading. Please wait.

Oxidizer Tab

1,951 views 6 this week
no commentswrite comment
1 2 3 4 5
1 last vote to show rating
add to favorites
launch autoscroll
font size
0
reset
how to read this tab
guitar tuner
Autoscroll
slow
fast
+/-
esc
set tempo
stop
Help us to improve Ultimate-Guitar.com Take our survey!
×
Author
"Oxidizer" by Fear Factory
Track 6 from the CD "Mechanize"

Tabbed by: Brenton Seifert
bseifertguitar@gmail.com
myspace.com/breathtakerx

7-String Guitar tuned a Whole Step Down (A D G C F A D)

D|------------------------------------------------|
A|------------------------------------------------|
F|------------------------------------------------|
C|------------------------------------------------|
G|------------------------------------------------|
D|------------------------------------------------|
A|-3-3-3--3--2-2-2--2--2----3-3-3--3--2-2-2--2--2-|


|--------------------------------------------------|
|--------------------------------------------------|
|--------------------------------------------------|
|--------------------------------------------------|
|--------------------------------------------------|
|--------------------------------------------------|
|-3-3-3--3--2-2-2--2--6-6-6--6--5-5-5--5--3-3-3--2-|


|--------------------------|
|--------------------------|
|--------------------------|
|--------------------------|
|--------------------------|
|-5----4----8----7----5--4-|
|-3----2----6----5----3--2-|


|------------------------------------------------------|
|------------------------------------------------------|
|------------------------------------------------------|
|------------------------------------------------------|
|------------------------------------------------------|
|------------------------------------------------------|
|-5-5-5--5--4-4-4--4--4-4-4--5-5-5--5--4-4-4--4--4-4-4-|


|------------------------------------------------------|
|------------------------------------------------------|
|------------------------------------------------------|
|------------------------------------------------------|
|------------------------------------------------------|
|------------------------------------------------------|
|-5-5-5--5--4-4-4--4--8-8-8--8--7-7-7--7--5-5-5--4-4-4-|


|----------------------------------------------|
|----------------------------------------------|
|----------------------------------------------|
|----------------------------------------------|
|-----------------------------5----------------|
|-----------------------------3----5---5--6--7-|
|-2-2-2-2-2-2-2-2-2-2-2-2-2-2------3---3--4--5-|


|----------------------------------------------------------|
|----------------------------------------------------------|
|----------------------------------------------------------|
|----------------------------------------------------------|
|----------------------------------------------------------|
|----------------------------------------------------------|
|-5-5-5-5-5-5-4-4-4-4-4-4-4------5-5-5-5-5-5-4-4-4-4-4-4-4-|


|-----------------------------------------------------------|
|-----------------------------------------------------------|
|-----------------------------------------------------------|
|-----------------------------------------------------------|
|-----------------------------------------------------------|
|-----------------------------------------------------------|
|-5-5-5-5-5-5-4-4-4-4-4-4-8-8-8-8-8-8-7-7-7-7-7-7-5-5-5-5-4-|


|------------------------------------------|
|------------------------------------------|
|------------------------------------------|
|------------------------------------------|
|------------------------------------------|
|-------------------------10----9----6-6-6-|
|-5-5-5-5-5-5-4-4-4-4-4-4--8----7----4-4-4-|


|--------------------------------------------|
|--------------------------------------------|
|--------------------------------------------|
|--------------------------------------------|
|-5-7-8-7---------------------5-7-8-7--------|
|----------0--0--0-0-0--0--0-----------0-0-0-|
|--------------------------------------------|


|--------------------------------------------------|
|--------------------------------------------------|
|--------------------------------------------------|
|--------------------------------------------------|
|-7-8-10-8-----------------------------------------|
|--------------------------------------------------|
|-----------6--6--6-6-6--6--6-6-6--6--6-6-6--6-6-6-|

(1:41)
|--------------------------------------------------|
|--------------------------------------------------|
|--------------------------------------------------|
|--------------------------------------------------|
|--------------------------------------------------|
|--------------------------------------------------|
|-6-6-6--6--6-6-6--6--6-6-6--6--6-6-6--6--6-6-6--6-|


(3:12)
|----------------------------------------------------|
|----------------------------------------------------|
|----------------------------------------------------|
|----------------------------------------------------|
|----------------------------------------------------|
|-5--7--8--7----------------5--7--8--7---------------|
|-3--5--6--5----5--5-5-5-5--3--5--6--5----5--5-5-5-5-|


|--------------------------------------------------------|
|--------------------------------------------------------|
|--------------------------------------------------------|
|--------------------------------------------------------|
|--------------------------------------------------------|
|-7--8-10--8---------------------------------------------|
|-5--6--8--6--6--6-6-6-6-6-6-6-6-6-6-6-6-6-6-6-6-6-6-6-6-|


|-----------------------------------------------------------|
|-----------------------------------------------------------|
|-----------------------------------------------------------|
|-----------------------------------------------------------|
|-----------------------------------------------------------|
|-----------------------------------------------------------|
|-6-6-6-6-6-6-6-6-6-6-6-6-6-6-6-6-6-6-6-6-6-6-6-6-6-6-6-6-6-|





************************************

| /   slide up
| \   slide down
| h   hammer-on
| p   pull-off
| ~   vibrato
| +   harmonic
| x   Mute note
| b   Bend
| pb  Pre-bend
| br  Bend release
| pbr Pre-bend release
| brb Bend release bend

************************************
Suggest correction
Give kudos to tab author, rate the tab!
1 2 3 4 5
comments
print report bad tab
guest
You may want to rate the tab now too:
select rating
Wanna post a correction for this tab? Suggest correction