Oops, an error
Loading. Please wait.

Pisschrist Bass Tab

version 1
version 1

Whole song

Interactive

297 views 1 this week
no commentswrite comment
1 2 3 4 5
please rate
add to favorites
launch autoscroll
font size
0
reset
guitar tuner
Tab Pro tools
  • play this tab
  • loop segment
  • change instrument
  • show fretboard
  • metronome
×
Best way to learn
"Pisschrist"
Autoscroll
slow
fast
+/-
esc
set tempo
stop
Contributor
Band: Fear Factory
Album: Demanufacture
Song: Pisschrist
Tuning 5-string: G D A E B
Tabbed by: ClosedRoad

first some weird sounds then

Intro
G -----------|
D -----------|
A -----------|
E -----------| 5x
B -44444444--|

Pre-Verse
G -------------------------------|
D -------------------------------|
A -------------------------------|
E -------------------------------| 2x
B -44444444---------444-444-444--|

verse
G --------------------------------------------------------------------|
D --------------------------------------------------------------------|
A --------------------------------------------------------------------|
E ----5-------5-------5----------------5-------5-------5--------------| 8x
B -44---444-4---444-4----44444444---44---444-4---444-4---444-444-444--|

After-Verse 2x
G -----------------------------|
D -----------------------------|
A -----------------------------|
E -----------------------------|
B -2222222222222222222222-5-7--|

G ------------------------------|
D ------------------------------|
A ------------------------------|
E ------------------------2222--|
B -2222222222222222222222-------|

Verse       4x
After-Verse 2x

Pre-Chorus
G -----------------------------|
D -----------------------------|
A -----------------------------|
E -------5-------5-------------| 4x
B -444-4---444-4---444-4--5-7--|

Chorus
G -----------------------------|
D -----------------------------|
A -----------------------------|
E -5------9------3------7------| 3x
B -----------------------------|

Intro       1x
Pre-verse   2x
Verse       4x
After-Verse 2x
Pre-Chorus  4x
Chorus      3x

After-Chorus        2x
G --------------------------------
D --------------------------------
A --------------------------------
E -------------999999999999-------
B -777777777777-------------9757--

                    1x
G ------------------------------------------|
D ------------------------------------------|
A ------------------------------------------| play all 4x
E -10----10----9----9----7----7-------------|
B ----00----00---00---00---00---00700-9757--|

Bridge
G ------------------------------------------|
D ------------------------------------------|
A ------------------------------------------|
E -10----10----9----9----7----7-------------| 8x
B ----00----00---00---00---00---00700-9757--|

End
G ----|
D ----|
A ----|
E ----| play this right after the last 4 notes (9757) and don't let ring.
B -0--|

That's It
There could be a couple of foulds in the tab,
because it was hard to here.
Have Fun
Greetings ClosedRoad
comments
We did not receive enough feedback on this tab! Please rate:
print report bad tab
1 2 3 4 5
I want to post or [tab]
guest
You may want to rate the tab now too:
select rating
Please do not post tabs as comments. Select "correction" instead!