Oops, an error
Loading. Please wait.

Powershifter Bass Tab

version 1
version 1

Whole song

Interactive

681 views 3 this week
no commentswrite comment
1 2 3 4 5
3 more votes to show rating
add to favorites
launch autoscroll
font size
0
reset
guitar tuner
Autoscroll
slow
fast
+/-
esc
set tempo
stop
Help us to improve Ultimate-Guitar.com Take our survey!
×
Author
-------------------------------------------------------------------------------
			     POWERSHIFTER - Fear Factory
-------------------------------------------------------------------------------

Tabbed By : henrihell
e-mail: henri-hell@hotmail.com

Tuning: A Tuning (5-string, but it's possible to play on a 4-string)

214 BPM

Intro
4/4
   S S S S S S S S S S S S S S S S | E E Q   S S S S E E | W 
F|---------------------------------|---------------------|-----------------|
C|---------------------------------|---------------------|-----------------|
G|---------------------------------|---------------------|-----------------|x4
D|---------------------------------|---------------------|-----------------|
A|-2-2-2-2-2-2-2-2-2-2-2-2-2-2-2-2-|-2-r-r---2-2-2-2-2---|-r---------------|

Main Riff
   S S S S S S S S S S S S S S S S | E E Q   S S S S E E | Q   E E E E Q 
F|---------------------------------|---------------------|-----------------|
C|---------------------------------|---------------------|-----------------|
G|---------------------------------|---------------------|-----------------|x4
D|---------------------------------|---------------------|-----------------|
A|-2-2-2-2-2-2-2-2-2-2-2-2-2-2-2-2-|-2-r-r---2-2-2-2-2---|-r---2-2-3-2-r---|

Bridge
3/4
   S S E  E  E  E  E  | S S E  E  E  E  E 
F|--------------------|--------------------|
C|--------------------|--------------------|
G|--------------------|--------------------|x4
D|--------------------|--------------------|
A|-4-4-4--4--4--4--r--|-4-4-4--4--4--4--r--|

Verse
4/4
   S S S S S S S S E  E  E  E  | Q   S S S S E  E  Q   
F|-----------------------------|------------------------|
C|-----------------------------|------------------------|
G|-----------------------------|------------------------|x3
D|-----------------------------|-------------------4----|
A|-3-3-3-3-3-3-3-3-3--3--3--3--|-r---3-3-3-3-3--3-------|

   S S S S S S S S E  E  E  E  | Q   S S S S E  E  Q   
F|-----------------------------|------------------------|
C|-----------------------------|------------------------|
G|-----------------------------|------------------------|
D|-----------------------------|-------------------3----|
A|-3-3-3-3-3-3-3-3-3--3--3--3--|-r---3-3-3-3-3--3-------|

   S S S S S S S S E  E  E  E  | Q   S S S S E  E  Q   
F|-----------------------------|------------------------|
C|-----------------------------|------------------------|
G|-----------------------------|------------------------|x3
D|-----------------------------|-------------------4----|
A|-3-3-3-3-3-3-3-3-3--3--3--3--|-3---3-3-3-3-3--3-------|

   S S S S S S S S E  E  E  E  | Q   S S S S E  E  Q   
F|-----------------------------|------------------------|
C|-----------------------------|------------------------|
G|-----------------------------|------------------------|
D|-----------------------------|-------------------3----|
A|-3-3-3-3-3-3-3-3-3--3--3--3--|-3---3-3-3-3-3--3-------|

Main Riff
   S S S S S S S S S S S S S S S S | E E Q   S S S S E E | Q   E E E E Q 
F|---------------------------------|---------------------|-----------------|
C|---------------------------------|---------------------|-----------------|
G|---------------------------------|---------------------|-----------------|x4
D|---------------------------------|---------------------|-----------------|
A|-2-2-2-2-2-2-2-2-2-2-2-2-2-2-2-2-|-2-r-r---2-2-2-2-2-r-|-r---2-2-3-2-r---|

Bridge
3/4
   S S E  E  E  E  E  | S S E  E  E  E  E 
F|--------------------|--------------------|
C|--------------------|--------------------|
G|--------------------|--------------------|x2
D|--------------------|--------------------|
A|-4-4-4--4--4--4--r--|-4-4-4--4--4--4--r--|


Verse
4/4
   S S S S S S S S E  E  E  E  | Q   S S S S E  E  Q   
F|-----------------------------|------------------------|
C|-----------------------------|------------------------|
G|-----------------------------|------------------------|x3
D|-----------------------------|-------------------4----|
A|-3-3-3-3-3-3-3-3-3--3--3--3--|-r---3-3-3-3-3--3-------|

   S S S S S S S S E  E  E  E  | Q   S S S S E  E  Q   
F|-----------------------------|------------------------|
C|-----------------------------|------------------------|
G|-----------------------------|------------------------|
D|-----------------------------|-------------------3----|
A|-3-3-3-3-3-3-3-3-3--3--3--3--|-r---3-3-3-3-3--3-------|

   S S S S S S S S E  E  E  E  | Q   S S S S E  E  Q   
F|-----------------------------|------------------------|
C|-----------------------------|------------------------|
G|-----------------------------|------------------------|x3
D|-----------------------------|-------------------4----|
A|-3-3-3-3-3-3-3-3-3--3--3--3--|-3---3-3-3-3-3--3-------|

   S S S S S S S S E  E  E  E  | Q   S S S S E  E  Q   
F|-----------------------------|------------------------|
C|-----------------------------|------------------------|
G|-----------------------------|------------------------|
D|-----------------------------|-------------------3----|
A|-3-3-3-3-3-3-3-3-3--3--3--3--|-3---3-3-3-3-3--3-------|

Chorus
   S S S S S S S S S S S S S S S S | S S S S S S S S S S S S S S S S
F|---------------------------------|---------------------------------|
C|---------------------------------|---------------------------------|
G|---------------------------------|---------------------------------|
D|-0-0-0-0-0-0-0-0-0-0-0-0-0-0-0-0-|-0-0-0-0-0-0-0-0-0-0-0-0-0-0-0-0-|
A|---------------------------------|---------------------------------|

   E E E E E E E E   E E E E E E Q
F|-----------------|-----------------|
C|-----------------|-----------------|
G|-----------------|-----------------|
D|-3-0-0-3-0-0-2-0-|-0-2-0-0-2-3-2---|
A|-----------------|-----------------|

   S S S S S S S S S S S S S S S S | S S S S S S S S S S S S S S S S
F|---------------------------------|---------------------------------|
C|---------------------------------|---------------------------------|
G|---------------------------------|---------------------------------|
D|---------------------------------|---------------------------------|
A|-3-3-3-3-3-3-3-3-3-3-3-3-3-3-3-3-|-3-3-3-3-3-3-3-3-3-3-3-3-3-3-3-3-|

   E E E E E E E E   E E E E E E Q
F|-----------------|-----------------|
C|-----------------|-----------------|
G|-----------------|-----------------|
D|-----------------|-----------------|
A|-2-0-0-2-0-0-2-0-|-0-2-0-0-2-3-2---|


   S S S S S S S S S S S S S S S S | S S S S S S S S S S S S S S S S
F|---------------------------------|---------------------------------|
C|---------------------------------|---------------------------------|
G|---------------------------------|---------------------------------|
D|-0-0-0-0-0-0-0-0-0-0-0-0-0-0-0-0-|-0-0-0-0-0-0-0-0-0-0-0-0-0-0-0-0-|
A|---------------------------------|---------------------------------|

   E E E E E E E E   E E E E E E Q
F|-----------------|-----------------|
C|-----------------|-----------------|
G|-----------------|-----------------|
D|-3-0-0-3-0-0-2-0-|-0-2-0-0-2-3-2---|
A|-----------------|-----------------|

   S S S S S S S S S S S S S S S S | S S S S S S S S S S S S S S S S
F|---------------------------------|---------------------------------|
C|---------------------------------|---------------------------------|
G|---------------------------------|---------------------------------|
D|---------------------------------|---------------------------------|
A|-3-3-3-3-3-3-3-3-3-3-3-3-3-3-3-3-|-3-3-3-3-3-3-3-3-3-3-3-3-3-3-3-3-|

   S S S S E  S S S S E  S S S S   E  S S S S E  S S S S E  E
F|-------------------------------|-----------------------------|
C|-------------------------------|-----------------------------|
G|-------------------------------|-----------------------------|
D|-------------------------------|-----------------------------|
A|-2-2-2-0-r--2-2-2-0-r--2-2-2-0-|-r--2-2-2-0-r--2-2-2-2-2--r--|

Chorus Part 2
   S S S S S S S S S S S S S S S S | S S S S S S S S S S S S S S S S
F|---------------------------------|---------------------------------|
C|---------------------------------|---------------------------------|
G|---------------------------------|---------------------------------|
D|-0-0-0-0-0-0-0-0-0-0-0-0-0-0-0-0-|-0-0-0-0-0-0-0-0-0-0-0-0-0-0-0-0-|
A|---------------------------------|---------------------------------|

   E E E E E E E E   E E E E E E Q
F|-----------------|-----------------|
C|-----------------|-----------------|
G|-----------------|-----------------|
D|-3-0-0-3-0-0-2-0-|-0-2-0-0-2-3-2---|
A|-----------------|-----------------|

   S S S S S S S S S S S S S S S S | S S S S S S S S S S S S S S S S
F|---------------------------------|---------------------------------|
C|---------------------------------|---------------------------------|
G|---------------------------------|---------------------------------|
D|---------------------------------|---------------------------------|
A|-3-3-3-3-3-3-3-3-3-3-3-3-3-3-3-3-|-3-3-3-3-3-3-3-3-3-3-3-3-3-3-3-3-|

   E E E E E E E E   E E E E E E Q
F|-----------------|-----------------|
C|-----------------|-----------------|
G|-----------------|-----------------|
D|-----------------|-----------------|
A|-2-0-0-2-0-0-2-0-|-0-2-0-0-2-3-2---|


   S S S S S S S S S S S S S S S S | S S S S S S S S S S S S S S S S
F|---------------------------------|---------------------------------|
C|---------------------------------|---------------------------------|
G|---------------------------------|---------------------------------|
D|-0-0-0-0-0-0-0-0-0-0-0-0-0-0-0-0-|-0-0-0-0-0-0-0-0-0-0-0-0-0-0-0-0-|
A|---------------------------------|---------------------------------|

   E E E E E E E E   E E E E E E Q
F|-----------------|-----------------|
C|-----------------|-----------------|
G|-----------------|-----------------|
D|-3-0-0-3-0-0-2-0-|-0-2-0-0-2-3-2---|
A|-----------------|-----------------|

   S S S S S S S S S S S S S S S S | S S S S S S S S S S S S S S S S
F|---------------------------------|---------------------------------|
C|---------------------------------|---------------------------------|
G|---------------------------------|---------------------------------|
D|---------------------------------|---------------------------------|
A|-3-3-3-3-3-3-3-3-3-3-3-3-3-3-3-3-|-3-3-3-3-3-3-3-3-3-3-3-3-3-3-3-3-|

   S S S S E  S S S S E  S S S S   E  S S S S E  S S S S E  E
F|-------------------------------|-----------------------------|
C|-------------------------------|-----------------------------|
G|-------------------------------|-----------------------------|x4
D|-------------------------------|-----------------------------|
A|-2-2-2-0-r--2-2-2-0-r--2-2-2-0-|-r--2-2-2-0-r--2-2-2-2-2--r--|

Breakdown
   S S S S S S E  Q    S S S S   S S E  Q   S S S S Q
F|-----------------------------|------------------------|
C|-----------------------------|------------------------|
G|-----------------------------|------------------------|x3
D|-8-8-8-8-5-5-r--r----8-8-8-8-|-5-5-r--r---8-8-8-8-r---|
A|-----------------------------|------------------------|

   S S S S S S S S S S S S S S S S   S S S S S S S S S S S S E  E 
F|---------------------------------|-------------------------------|
C|---------------------------------|-------------------------------|
G|---------------------------------|-------------------------------|
D|-8-8-8-8-5-5-7-7-7-7-7-7-8-8-8-8-|-5-5-7-7-7-7-7-7-8-8-8-8-4--r--|
A|---------------------------------|-------------------------------|

Interlude
   S S S S S S Q   E  S S S S   S S Q   E  S S S S Q
F|----------------------------|------------------------|
C|----------------------------|------------------------|
G|----------------------------|------------------------|x4
D|-8-8-8-8-5-5-7---7--8-8-8-8-|-5-5-7---7--8-8-8-8-4---|
A|----------------------------|------------------------|

   S S S S S S Q   E  S S S S   S S Q   E  S S S S Q
F|----------------------------|------------------------|
C|----------------------------|------------------------|
G|-------------7---7----------|-----5---5----------8---|x8
D|-8-8-8-8-5-5--------8-8-8-8-|-5-5--------8-8-8-8-----|
A|----------------------------|------------------------|

Guitar Only 14 bars then:

   S S S S S S S S S S S S S S S S   S S S S S S S S S S S S E  E
F|---------------------------------|-------------------------------|
C|---------------------------------|-------------------------------|
G|---------------------------------|-------------------------------|
D|---------------------------------|-------------------------------|
A|-2-2-2-2-2-2-2-2-2-2-2-2-2-2-2-2-|-2-2-2-2-2-2-2-2-2-2-2-2-2--r--|

Chorus
   S S S S S S S S S S S S S S S S | S S S S S S S S S S S S S S S S
F|---------------------------------|---------------------------------|
C|---------------------------------|---------------------------------|
G|---------------------------------|---------------------------------|
D|-0-0-0-0-0-0-0-0-0-0-0-0-0-0-0-0-|-0-0-0-0-0-0-0-0-0-0-0-0-0-0-0-0-|
A|---------------------------------|---------------------------------|

   E E E E E E E E   E E E E E E Q
F|-----------------|-----------------|
C|-----------------|-----------------|
G|-----------------|-----------------|
D|-3-0-0-3-0-0-2-0-|-0-2-0-0-2-3-2---|
A|-----------------|-----------------|

   S S S S S S S S S S S S S S S S | S S S S S S S S S S S S S S S S
F|---------------------------------|---------------------------------|
C|---------------------------------|---------------------------------|
G|---------------------------------|---------------------------------|
D|---------------------------------|---------------------------------|
A|-3-3-3-3-3-3-3-3-3-3-3-3-3-3-3-3-|-3-3-3-3-3-3-3-3-3-3-3-3-3-3-3-3-|

   E E E E E E E E   E E E E E E Q
F|-----------------|-----------------|
C|-----------------|-----------------|
G|-----------------|-----------------|
D|-----------------|-----------------|
A|-2-0-0-2-0-0-2-0-|-0-2-0-0-2-3-2---|


   S S S S S S S S S S S S S S S S | S S S S S S S S S S S S S S S S
F|---------------------------------|---------------------------------|
C|---------------------------------|---------------------------------|
G|---------------------------------|---------------------------------|
D|-0-0-0-0-0-0-0-0-0-0-0-0-0-0-0-0-|-0-0-0-0-0-0-0-0-0-0-0-0-0-0-0-0-|
A|---------------------------------|---------------------------------|

   E E E E E E E E   E E E E E E Q
F|-----------------|-----------------|
C|-----------------|-----------------|
G|-----------------|-----------------|
D|-3-0-0-3-0-0-2-0-|-0-2-0-0-2-3-2---|
A|-----------------|-----------------|

   S S S S S S S S S S S S S S S S | S S S S S S S S S S S S S S S S
F|---------------------------------|---------------------------------|
C|---------------------------------|---------------------------------|
G|---------------------------------|---------------------------------|
D|---------------------------------|---------------------------------|
A|-3-3-3-3-3-3-3-3-3-3-3-3-3-3-3-3-|-3-3-3-3-3-3-3-3-3-3-3-3-3-3-3-3-|

   S S S S E  S S S S E  S S S S   E  S S S S E  S S S S E  E
F|-------------------------------|-----------------------------|
C|-------------------------------|-----------------------------|
G|-------------------------------|-----------------------------|
D|-------------------------------|-----------------------------|
A|-2-2-2-0-r--2-2-2-0-r--2-2-2-0-|-r--2-2-2-0-r--2-2-2-2-2--r--|

Chorus Part 2
   S S S S S S S S S S S S S S S S | S S S S S S S S S S S S S S S S
F|---------------------------------|---------------------------------|
C|---------------------------------|---------------------------------|
G|---------------------------------|---------------------------------|
D|-0-0-0-0-0-0-0-0-0-0-0-0-0-0-0-0-|-0-0-0-0-0-0-0-0-0-0-0-0-0-0-0-0-|
A|---------------------------------|---------------------------------|

   E E E E E E E E   E E E E E E Q
F|-----------------|-----------------|
C|-----------------|-----------------|
G|-----------------|-----------------|
D|-3-0-0-3-0-0-2-0-|-0-2-0-0-2-3-2---|
A|-----------------|-----------------|

   S S S S S S S S S S S S S S S S | S S S S S S S S S S S S S S S S
F|---------------------------------|---------------------------------|
C|---------------------------------|---------------------------------|
G|---------------------------------|---------------------------------|
D|---------------------------------|---------------------------------|
A|-3-3-3-3-3-3-3-3-3-3-3-3-3-3-3-3-|-3-3-3-3-3-3-3-3-3-3-3-3-3-3-3-3-|

   E E E E E E E E   E E E E E E Q
F|-----------------|-----------------|
C|-----------------|-----------------|
G|-----------------|-----------------|
D|-----------------|-----------------|
A|-2-0-0-2-0-0-2-0-|-0-2-0-0-2-3-2---|


   S S S S S S S S S S S S S S S S | S S S S S S S S S S S S S S S S
F|---------------------------------|---------------------------------|
C|---------------------------------|---------------------------------|
G|---------------------------------|---------------------------------|
D|-0-0-0-0-0-0-0-0-0-0-0-0-0-0-0-0-|-0-0-0-0-0-0-0-0-0-0-0-0-0-0-0-0-|
A|---------------------------------|---------------------------------|

   E E E E E E E E   E E E E E E Q
F|-----------------|-----------------|
C|-----------------|-----------------|
G|-----------------|-----------------|
D|-3-0-0-3-0-0-2-0-|-0-2-0-0-2-3-2---|
A|-----------------|-----------------|

   S S S S S S S S S S S S S S S S | S S S S S S S S S S S S S S S S
F|---------------------------------|---------------------------------|
C|---------------------------------|---------------------------------|
G|---------------------------------|---------------------------------|
D|---------------------------------|---------------------------------|
A|-3-3-3-3-3-3-3-3-3-3-3-3-3-3-3-3-|-3-3-3-3-3-3-3-3-3-3-3-3-3-3-3-3-|

   S S S S E  S S S S E  S S S S   E  S S S S E  S S S S E  E
F|-------------------------------|-----------------------------|
C|-------------------------------|-----------------------------|
G|-------------------------------|-----------------------------|x4
D|-------------------------------|-----------------------------|
A|-2-2-2-0-r--2-2-2-0-r--2-2-2-0-|-r--2-2-2-0-r--2-2-2-2-2--r--|

Symbol Explanations
W = Whole Note
H = Half Note
Q = Quarter Note
E = Eight Note
S = Sixteenth Note
r = Rest
x?= play that ROW ? times
Suggest correction
Give kudos to tab author, rate the tab!
1 2 3 4 5
comments
print report bad tab
guest
You may want to rate the tab now too:
select rating
Wanna post a correction for this tab? Suggest correction