Oops, an error
Loading. Please wait.

Replica Bass Tab

version 2
version 2

Whole song

Interactive

862 views 1 this week
1 commentread comment
1 2 3 4 5
please rate
add to favorites
launch autoscroll
font size
0
reset
guitar tuner
Autoscroll
slow
fast
+/-
esc
set tempo
stop
Help us to improve Ultimate-Guitar.com Take our survey!
×
Author
Band: Fear Factory
Album: Demanufacture
Song: Replica
Tuning 5-string: B E A D G
Tabbed By ClosedRoad

Intro/ Verse (HOA!)(not sure if the bass plays these riffs as Intro)
Part I
G ------------------------------|
D ------------------------------|
A ------------------------------|
E --------0-0002----------------| 3x
B -2222222-------44444445-5553--|

Part II
G --------------------------------|
D --------------------------------|
A --------------------------------|
E --------0-0002------------------| 1x
B -2222222-------444444455553333--|

After Verse
G ---------------------|
D ---------------------|
A ---------------------|
E ---------------------| 4x
B -2-225557--4-445553--|

Verse Part I  3x
      Part II 1x
After Verse   2x
verse part I  4x

Pre-Chorus
G -----------------------------------|
D -----------------------------------|
A -----------------------------------|
E -------------2222------------------| 2x
B -222222225555----4444444455553333--|

Chorus
G ---------------------------------------------|
D ---------------------------------------------| (listen for perfect timing)
A ---------------------------------------------|
E ---------------------------------------------| 2x
B -5--7-4---7--9-6---5--7-4--0h22-2-22-222222--|

After Chorus
G ------------------|
D ------------------|
A ------------------|
E ------------------|
B -0h2-2-22-222222--|

Bridge I
G ------------|
D ------------|
A ------------|
E ------------|
B -0-------2--|

verse Part I  1x
      Part II 1x
After Verse   2x
verse Part I  2x
Pre-chorus    2x
Chorus        4x
After Chorus  1x

Bridge II
G ---------------------------------
D ---------------------------------
A ---------------------------------Keep playing until stop
E ---------------------------------
B -22222222222222222222222222222---

Chorus 4x
After Chorus
Bridge II (this is also The End)

heavy Song Here It is.
Have Fun
Greetings ClosedRoad
Suggest correction
Give kudos to tab author, rate the tab!
1 2 3 4 5
comments
print report bad tab
1 comment total.
0 reply
quinn.adema 10 wrote on December 19 2014, 03:09 pm

thanks for making this tab! the other ones suck! :-P

guest
You may want to rate the tab now too:
select rating
Please do not post tabs as comments. Select "correction" instead!