Oops, an error
Loading. Please wait.

Replica Tab

version 3
version 3

Whole song

Interactive

856 views 6 this week
1 commentread comment
1 2 3 4 5
please rate
add to favorites
launch autoscroll
font size
0
reset
how to read this tab
guitar tuner
Autoscroll
slow
fast
+/-
esc
set tempo
stop
Help us to improve Ultimate-Guitar.com Take our survey!
×
Author
Difficulty
Tuning
novice
D A D G B E
----------------------------------------------------------------------------
                             Replica-Fear Factory
----------------------------------------------------------------------------
Tabbed by: Joel Keane(jk41)
Email:
I know this is played on a seven string so i have got an easy version for everyone to 
play. Not 100% but sounds cool
Tuning: Drop D
Intro and verse riff                                 x3
e|---------------------------------------------------------------------------|
B|---------------------------------------------------------------------------|
G|---------------------------------------------------------------------------|
D|---------------------------------------------------------------------------|
A|-0-0-0-0-0-0-0-3---3-3-3-5-----2-2-2-2-2-2-2-3---3-3-3-1-------------------|
D|-0-0-0-0-0-0-0-3---3-3-3-5-----2-2-2-2-2-2-2-3---3-3-3-1-------------------|
pm----------------   -------     ---------------   -------
                                                     x1
e|---------------------------------------------------------------------------|
B|---------------------------------------------------------------------------|
G|---------------------------------------------------------------------------|
D|---------------------------------------------------------------------------|
A|-0-0-0-0-0-0-0-3---3-3-3-5-----2-2-2-2-2-2-2-3-3-3-1-1-1-------------------|
D|-0-0-0-0-0-0-0-3---3-3-3-5-----2-2-2-2-2-2-2-3-3-3-1-1-1-------------------|
pm----------------   -------     -------------------------
                             x3                           x1
e|---------------------------------------------------------------------------|
B|---------------------------------------------------------------------------|
G|---------------------------------------------------------------------------|
D|-0-0-0-3-3-3/5--2-2-2-3-3-3\1--0-0-0-3-3-3/5--2-2-2-3--3-3-3-1-------------|
A|-0-0-0-3-3-3/5--2-2-2-3-3-3\1--0-0-0-3-3-3/5--2-2-2-3--3-3-3-1-------------|
D|-0-0-0-3-3-3/5--2-2-2-3-3-3\1--0-0-0-3-3-3/5--2-2-2-3--3-3-3-1-------------|
                                                         pm-----
I am rape, i am hate riff x2
e|---------------------------------------------------------------------------|
B|---------------------------------------------------------------------------|
G|---------------------------------------------------------------------------|
D|---------------------------------------------------------------------------|
A|--0-0-0-0-0-0-0-3-3-3-3-5-5-5-5--2-2-2-2-2-2-2-3-3-3-3-1-1-1-1-------------|
D|--0-0-0-0-0-0-0-3-3-3-3-5-5-5-5--2-2-2-2-2-2-2-3-3-3-3-1-1-1-1-------------|
    pm---------------------------  -----------------------------

then this, can strum the drum rhythm with the 3rd notes*   x2
e|---------------------------------------------------------------------------|
B|---------------------------------------------------------------------------|
G|---------------------------------------------------------------------------|
D|--5--5--2-----7--7--4-----5--5--2------------------------------------------|
A|--3--5--2-----5--7--4-----3--5--2------------------------------------------|
D|--3--5--2-----5--7--4-----3--5--2----0000-0-0-0-00000----------------------|
          *           *           *    pm--------------
   3rd time
e|---------------------------------------------------------------------------|
B|---------------------------------------------------------------------------|
G|---------------------------------------------------------------------------|
D|---------------------------------------------------------------------------|
A|----------------------0---------------0------------------------------------|
D|0000-0-0-0-00000------0-0-000-0-00000-0-0-000-0-00000----------------------|
  pm--------------        -------------   -------------

Back through all the riffs again and plays thru the last riff with bursts of open D as an outro



************************************

| /   slide up
| \   slide down
| h   hammer-on
| p   pull-off
| ~   vibrato
| +   harmonic
| x   Mute note
| b   Bend
| pb  Pre-bend
| br  Bend release
| pbr Pre-bend release
| brb Bend release bend

************************************
Suggest correction
What's this?
You can suggest a correction to this tab. Community and Mods will review your correction and vote to approve or reject it.
comments
We did not receive enough feedback on this tab! Please rate:
print report bad tab
1 2 3 4 5
1 comment total.
0 reply
sfinley 11 wrote on August 20 2016, 02:46 am

Thanks for this. It's hard to find decent 6 string adaptations :P

guest
You may want to rate the tab now too:
select rating
Please do not post tabs as comments. Select "correction" instead!