Oops, an error
Loading. Please wait.

Resurrection Bass Tab

version 1
version 1

Whole song

Interactive

777 views 1 this week
no commentswrite comment
1 2 3 4 5
please rate
add to favorites
launch autoscroll
font size
0
reset
guitar tuner
Autoscroll
slow
fast
+/-
esc
set tempo
stop
Help us to improve Ultimate-Guitar.com Take our survey!
×
-------------------------------------------------------------
Artist:  Fear Factory
Song:  "Resurrection"
Album:  "Obsolete"
Label:  Roadrunner Records, copyright 1998, (The All-Blacks B.V.)

Nihilistic Automaton:  Burton C. Bell
Hypercharged Detonator:  Dino Cazares
Substatic Intensifier:  Christian Olde Wolbers
Automodulated Groove Injector:  Raymond Herrera

Thanks a lot to Yani and Ray for giving me the opportunity to do this.

My name is Dimitrije Kostic and any questions about this tab or any 
others in the Fear Factory Tablature Archive can be emailed to me at
                martyr@fearfactory.com
I will gladly investigate any possible errors in any tablature on this site.

-------------------------------------------------------------

This is currently slated to be the first single from the Obsolete album.  
It is a moody song that fluctuates from quiet and spiritual to the loud 
and passionately heavy.  The hammer-on series of notes in Riffs A and B 
may prove somewhat difficult to memorize.  However, this is nothing that 
listening to the track won't soon fix.  

There shouldn't be very many challenges in the way of technique here.  
It is, nonetheless, a good place to practice the powerful, doom-colored, 
sustaining chords that make the end of the song so memorable.  Learn how 
to control the strings and still make them resonate.  Have fun!

Tune all strings down a perfect fourth (B, E, A, D)

LEGEND:
 
        H    -- hit-on
        P    -- pull-off
        ~~~~ -- vibrato
        A.H. -- Artificial Harmonic
        N.H. -- Natural Harmonic
	  /    -- slide up
	  \	 -- slide down

moderate speed

Intro: About 45 seconds of atmospheric studio effects and synthesizers 
before Burton begins to sing.  About 30 seconds after that, the guitar 
kicks in...

Riff A

                                    P          P           P
|--------------------------------------------------------------|
|--------------------------------------------------------------|
|-3-3--3-3-(3)-5---1-1--1-1-(1)-3------------------------------|
|----------------------------------1-0-0--1-0-1-0--0-1-0--1-0--|

Riff B

Burton sings in the empty space to the left

|--------------------------------------------------------------|
|--------------------------------------------------------------|
|--------------------------------------------------------------|
|---------------------1-0--0-0--0-1-0--0-1-0--0-0--0-1-0--0-1--|
                      
Riff C

Let chords ring out.  Played under "Revive...all my fears," etc.

|------------------------------------------|
|------------------------------------------|
|-3-----5----------3-----5-----------------|
|------------------------------6-----------|

Riff D

Only slight palm muting in this riff

     H
|------------------------------------------------------------|
|------------------------------------------------------------|
|------------------------------------------------------------|
|-6--6-6-6-(1)-(3)-5--5-5-5-5-5--1--1-1-1-1-1--3--3-3-3-3-3--|
     * * *            * * * * *     * * * * *     * * * * *

Riff E

Trill on that E note and then slam into the F#5 chord and let it ring
and fade out

|----------------------------------|
|----------------------------------|
|----------------------------------|
|-6~6-6-6-6-6-6-6-6-6-6-6-6-6-6-8--|

Riff F

|--------------------|
|--------------------|
|--------------------|
|-6--6-6-6-6-6--3-5--|

Riff G

|------------------------------|
|------------------------------|
|------------------------------|
|-6-6-6-6-6-6-6-6-6-6-6-6-6-6--|

Riff H

|---------------------------------------------|
|---------------------------------------------|
|-3-----5----------3-----5--------------------|
|------------------------------6---6---6---6--|

Riff I

This riff played slowly, with heavy emphasis on each chord.  Let
final chord in this riff ring and fade out.

|---------------------------------------------------|
|---------------------------------------------------|
|----------------------------------3-----(3)-----3--|
|-6----------5----------1----------3-----(3)-----3--|

|-------------------------------------------------------|
|-------------------------------------------------------|
|----------------------------------------2-2-2---2---2--|
|-6----------5----------1----------2-----2-2-2---2---2--|

|---------------------------------------------------|
|---------------------------------------------------|
|----------------------------------3-----(3)-----3--|
|-6----------5----------1----------3-----(3)-----3--|

|---------------------------------------------------|
|---------------------------------------------------|
|---------------------------------------------------|
|-6----------5----------1---------------------------|

Song Structure

Riff A 4 times
Riff B 4 times 
Riff A 4 times
Riff C 4 times
Riff D 4 times
Riff E 1 time

About 30 seconds of bass silence while Burton 
sings and keyboards play.  Then, bass crashes 
back in with..

Riff A 4 times
Riff C 4 times
Riff F 2 times
Riff G 1 time
Riff H 3 times
Riff C 1 time
Riff D 4 times
Riff I 1 time, fade out, and segue into "Timelessness"


Suggest correction new What's this?
You can suggest a correction to this tab. Community and Mods will review your correction and vote to approve or reject it.
comments
We did not receive enough feedback on this tab! Please rate:
print report bad tab
1 2 3 4 5
guest
You may want to rate the tab now too:
select rating
Please do not post tabs as comments. Select "correction" instead!