Oops, an error
Loading. Please wait.

Resurrection Bass Tab

version 2
version 2

Whole song

Interactive

190 views 1 this week
no commentswrite comment
1 2 3 4 5
3 more votes to show rating
add to favorites
launch autoscroll
font size
0
reset
guitar tuner
Autoscroll
slow
fast
+/-
esc
set tempo
stop
Help us to improve Ultimate-Guitar.com Take our survey!
×
Author
Tuning
A E A D F# B
#----------------------------------PLEASE NOTE---------------------------------#
#This file is the author's own work and represents their interpretation of the #
#song. You may only use this file for private study, scholarship, or research. #
#------------------------------------------------------------------------------#

RESURRECTION (Bassline)
As recorded by Fear Factory
(From the 1998 Album OBSOLETE)

Transcribed by The Foreverlorn
	

Words by Burton C. Bell Music by Dino Cazares, Raymond Herrera, Christian Olde Wolbers

Gtr I (A E A D) - 'Christian I'
Gtr II (A E A D) - 'Christian II'

 Intro + Calm VPre-Chorus
 3/4
  Gtrs I, II
  Wx45          S E E E S Q    S E E E S Q
|-----------||---------------|--------------|
|-----------||o--------------|--------------|
|-----------||o-3-3-3-3-3-3--|-1-1-1-1-1-1--|
|-----------||---------------|--------------|


  S E E E S S E S   S E E E S S E S  4x
|-----------------|------------------||
|-----------------|-----------------o||
|-----------------|-----------------o||
|-3-2-2-3-2-3-2-2-|-3-2-2-3-2-3-2-2--||


   Verse
    H.        H.        S E E E S S E S   S E E E S S E S   4x
||----------|---------|-----------------|-------------------||
||o---------|---------|-----------------|------------------o||
||o---------|---------|-----------------|------------------o||
||----------|---------|-3-2-2-3-2-3-2-2-|-3-2-2-3-2-3-2-2---||


   Pre-Chorus
    S E E E S Q    S E E E S Q    S E E E S S E S   S E E E S S E S   4x
||---------------|--------------|-----------------|-------------------||
||o--------------|--------------|-----------------|------------------o||
||o-3-3-3-3-3-3--|-1-1-1-1-1-1--|-----------------|------------------o||
||---------------|--------------|-3-2-2-3-2-3-2-2-|-3-2-2-3-2-3-2-2---||


   Chorus
                                       1.,2.,3.
   4/4
    E E E. E. E E E   E E E E E E E E   E E E E E E E E   +E  E E E E E E E  4x
||------------------|-----------------|-----------------|--------------------||
||o-----------------|-----------------|-----------------|-------------------o||
||o-3-3-3--5--5-5-5-|-5-5-5-5-5-5-5-5-|-3-3-3-3-5-5-5-1-|-(1)-1-1-1-1-1-1-1-o||
||------------------|-----------------|-----------------|--------------------||


                     Interlude
  4.
  E E E E E E E E     +E  E E E E E E E
|-----------------||--------------------|
|-----------------||o-------------------|
|-3-3-3-3-5-5-5-1-||o-(1)-1-1-1-1-1-1-0-|
|-----------------||--------------------|


  +E  E E E E E E E   +E  E E E E E E E
|-------------------|-------------------|
|-------------------|-------------------|
|-(0)-0-0-0-0-0-0---|-------------------|
|-----------------3-|-(3)-3-3-3-3-3-3-5-|


  +E  E E E E E E E   +E  E E E E E E E
|-------------------|-------------------|
|-------------------|-------------------|
|-----------------1-|-(1)-1-1-1-1-1-1-0-|
|-(5)-5-5-5-5-5-3---|-------------------|


  +E  E E E E E E E   +E  E E E E E E E
|-------------------|-------------------|
|-------------------|-------------------|
|-(0)-0-0-0-0-0-0---|-------------------|
|-----------------3-|-(3)-3-3-3-3-3-3-2-|


  +E  E E E E E E E     +E  S S S S S S S S S S S S S S
|--------------------||---------------------------------|
|-------------------o||---------------------------------|
|-----------------1-o||-(1)-1-1-1-1-1-1-1-1-1-1-1-1-1-1-|
|-(2)-2-2-2-2-2-3----||---------------------------------|


  S S S S S S S S S S S S S S S S
|---------------------------------|
|---------------------------------|
|-1-1-1-1-1-1-1-1-1-1-1-1-1-1-1-1-|
|---------------------------------|


 Break
  >
  W          +W           +W           +W           +W
|----------|------------|------------|------------|--------|
|----------|------------|------------|------------|--------|
|----------|------------|------------|------------|--------|
|-3--------|-(3)--------|-(3)--------|-(3)--------|-(3)----|


 Synth InterludPre-Chorus
 3/4
  Wx21          S E E E S Q    S E E E S Q
|-----------||---------------|--------------|
|-----------||o--------------|--------------|
|-----------||o-3-3-3-3-3-3--|-1-1-1-1-1-1--|
|-----------||---------------|--------------|


  S E E E S S E S   S E E E S S E S  4x
|-----------------|------------------||
|-----------------|-----------------o||
|-----------------|-----------------o||
|-3-2-2-3-2-3-2-2-|-3-2-2-3-2-3-2-2--||


   Chorus
                                       1.,2.,3.
   4/4
    E E E. E. E E E   E E E E E E E E   E E E E E E E E   +E  E E E E E E E  4x
||------------------|-----------------|-----------------|--------------------||
||o-----------------|-----------------|-----------------|-------------------o||
||o-3-3-3--5--5-5-5-|-5-5-5-5-5-5-5-5-|-3-3-3-3-5-5-5-1-|-(1)-1-1-1-1-1-1-1-o||
||------------------|-----------------|-----------------|--------------------||


                    Interlude #2
  4.
  E E E E E E E E    +E  E E E E E E E   +E  E E E E E E E
|-----------------||-------------------|-------------------|
|-----------------||-------------------|-------------------|
|-3-3-3-3-5-5-5-1-||-(1)-1-1-1-1-0-0-1-|-(1)-1-1-1-1-0-0-1-|
|-----------------||-------------------|-------------------|


  +E  S S S S S S S S S S S S S S   S S S S S S S S S S S S S S S S
|---------------------------------|----------------------------------|
|---------------------------------|----------------------------------|
|-(1)-1-1-1-1-1-1-1-1-1-1-1-1-1-1-|-1-1-1-1-1-1-1-1-1-1-1-1-1-1-1-1--|
|---------------------------------|----------------------------------|


   Chorus
                                       1.,2.,3.
    E E E. E. E E E   E E E E E E E E   E E E E E E E E   +E  E E E E E E E  4x
||------------------|-----------------|-----------------|--------------------||
||o-----------------|-----------------|-----------------|-------------------o||
||o-3-3-3--5--5-5-5-|-5-5-5-5-5-5-5-5-|-3-3-3-3-5-5-5-1-|-(1)-0-1-0-1-0-1-0-o||
||------------------|-----------------|-----------------|--------------------||


                    Interlude
  4.
  E E E E E E E E    +E  E E E E E E E   +E  E E E E E E E   +E  E E E E E E E
|-----------------||-------------------|-------------------|-------------------|
|-----------------||-------------------|-------------------|-------------------|
|-3-3-3-3-5-5-5-1-||-(1)-1-1-1-1-1-1-0-|-(0)-0-0-0-0-0-0---|-------------------|
|-----------------||-------------------|-----------------3-|-(3)-3-3-3-3-3-3-5-|


  +E  E E E E E E E   +E  E E E E E E E
|-------------------|-------------------|
|-------------------|-------------------|
|-----------------1-|-(1)-1-1-1-1-1-1-0-|
|-(5)-5-5-5-5-5-3---|-------------------|


  +E  E E E E E E E   +E  E E E E E E E   +E  E E E E E E E
|-------------------|-------------------|-------------------|
|-------------------|-------------------|-------------------|
|-(0)-0-0-0-0-0-0---|-------------------|-----------------1-|
|-----------------3-|-(3)-3-3-3-3-3-3-2-|-(2)-2-2-2-2-2-3---|


  +E  E E E E E E E   +E  E E E E E E E   +E  E E E E E E E   E E E E E E E E
|-------------------|-------------------|-------------------|-----------------|
|-------------------|-------------------|-------------------|-----------------|
|-(1)-1-1-1-1-1-1-0-|-(0)-0-0-0-0-0-0---|-------------------|---------------1-|
|-------------------|-----------------3-|-(3)-3-3-3-3-3-3-2-|-2-2-2-2-2-2-3---|


  +E  E E E E E E E   +E  E E E E E E E
|-------------------|-------------------|
|-------------------|-------------------|
|-(1)-1-1-1-1-1-1-0-|-(0)-0-0-0-0-0-0---|
|-------------------|-----------------3-|


  +E  E E E E E E E   +E  S S S S S S S S S S E E
|-------------------|------------------------------|
|-------------------|------------------------------|
|-------------------|---------------------------1--|
|-(3)-3-3-3-3-3-3-2-|-(2)-2-2-2-2-2-2-2-2-2-2-3----|


 Outro
  +H..       E   +H..       E   +H..       E   +H.      q
|--------------|--------------|--------------|-------------|
|--------------|--------------|--------------|-------------|
|-(1)--------0-|-(0)----------|--------------|-------------|
|--------------|------------3-|-(3)--------5-|-(5)------3--|


  H..       E   +H..       E   +H..       E   +E  E E E q  q
|-------------|--------------|--------------|-----------------|
|-------------|--------------|--------------|-----------------|
|-1---------0-|-(0)----------|--------------|-----------------|
|-------------|------------3-|-(3)--------2-|-(2)-2-2-2-2--2--|


  H..       E   +H..       E   +H..       E   +H.      q
|-------------|--------------|--------------|-------------|
|-------------|--------------|--------------|-------------|
|-1---------0-|-(0)----------|--------------|-------------|
|-------------|------------3-|-(3)--------5-|-(5)------3--|


  H..       E   +H..       E   +W
|-------------|--------------|--------|
|-------------|--------------|--------|
|-1---------0-|-(0)----------|--------|
|-------------|------------3-|-(3)----|


   >
  +W           +W           +W           +W
|------------|------------|------------|--------*|
|------------|------------|------------|--------*|
|------------|------------|------------|--------*|
|-(3)--------|-(3)--------|-(3)--------|-(3)----*|



Duration Legend
---------------
W - whole; H - half; Q - quarter; E - 8th; S - 16th; T - 32nd; X - 64th; a - acciaccatura
+ - note tied to previous; . - note dotted; .. - note double dotted
Uncapitalized letters represent notes that are staccato (1/2 duration)
Irregular groupings are notated above the duration line
Duration letters will always appear directly above the note/fret number it represents the
duration for.  Duration letters with no fret number below them represent rests.  Multi-
bar rests are notated in the form Wxn, where n is the number of bars to rest for.  Low
melody durations appear below the staff

Tablature Legend
----------------
 h   - hammer-on
 p   - pull-off
 b   - bend
 pb  - pre-bend
 r   - bend release (if no number after the r, then release immediately)
 /\  - slide into or out of (from/to "nowhere")
 s   - legato slide
 S   - shift slide
 - natural harmonic
[n]  - artificial harmonic
n(n) - tapped harmonic
 ~   - vibrato
 tr  - trill
 T   - tap
 TP  - trem. picking
 PM  - palm muting
\n/  - tremolo bar dip; n = amount to dip
 \n  - tremolo bar down
 n/  - tremolo bar up
/n\  - tremolo bar inverted dip
 =   - hold bend; also acts as connecting device for hammers/pulls
 <> - volume swell (louder/softer)
 x   - on rhythm slash represents muted slash
 o   - on rhythm slash represents single note slash

Misc Legend
-----------
 |  - bar
||  - double bar
||o - repeat start
o|| - repeat end
*|  - double bar (ending)
 :  - bar (freetime)
 $  - Segno
 &  - Coda
Tempo markers -  = BPM(8/16=s8/s16), where s8 = swing 8ths, s16 = swing 16ths

Suggest correction
Give kudos to tab author, rate the tab!
1 2 3 4 5
comments
print report bad tab
guest
You may want to rate the tab now too:
select rating
Wanna post a correction for this tab? Suggest correction