Oops, an error
Loading. Please wait.

Scapegoat Bass Tab

version 1
version 1

Whole song

Interactive

921 views 1 this week
no commentswrite comment
1 2 3 4 5
please rate
add to favorites
launch autoscroll
font size
0
reset
guitar tuner
Autoscroll
slow
fast
+/-
esc
set tempo
stop
Help us to improve Ultimate-Guitar.com Take our survey!
×
Song: Scapegoat
Album: Soul Of A New Machine
Band: Fear Factory
Tabbed By: Masterbasser36


Intro
G|----------------------|
D|----------------------|
A|----------------------|
C|-00--02--00-02--002---|

G|-------------------------------------------------------------------------|
D|-------------------------------------------------------------------------|
A|-------------------------------------------------------------------------|
C|-0000--333--2222--0000--3333--2222--0000--3333--2222--0000--3333--2222---|


Verse
G|----------------------|
D|----------------------|
A|----------------------|
C|-00--13--00-13--002---| 

G|-------------------------------------------------------------------------|
D|-------------------------------------------------------------------------|
A|-------------------------------------------------------------------------|
C|-0000--333--2222--0000--3333--2222--0000--3333--2222--0000--3333--2222---|


Bridge
G|------------------------------------------------------------------|
D|------------------------------------------------------------------|
A|-2222--2222-22-3---2222--2222--3----------------------------------|
C|----------------------------------6666-6666-66---5555---5555-55---|


Chorus                      
G|------------------------------------------------------||-----------------|
D|------------------------------------------------------||-----------------|
A|------------------------------------------------------||-----------------|
C|-00000-00000-2--0-0-0-0-0-0-0-0-0-0-2---333333333333--||-3333-2332--33---|


That's it!
Please rate!

Suggest correction
Give kudos to tab author, rate the tab!
1 2 3 4 5
comments
print report bad tab
guest
You may want to rate the tab now too:
select rating
Please do not post tabs as comments. Select "correction" instead!