Oops, an error
Loading. Please wait.

Self Bias Resistor Bass Tab

version 1
version 1

Whole song

Interactive

643 views 3 this week
no commentswrite comment
1 2 3 4 5
2 more votes to show rating
add to favorites
launch autoscroll
font size
0
reset
guitar tuner
Autoscroll
slow
fast
+/-
esc
set tempo
stop
Help us to improve Ultimate-Guitar.com Take our survey!
×
--------------------------------------
***Self Bias Resistor- Fear Factory***
--------------------------------------

5-string bass


INTRO:

G|---------------|   Play            |--------------------------|  Then
D|---------------|   this            |--------------------------|  play
A|---------------|   eight           |--------------------------|  this
E|---------------|   times           |--------------------------|  eight
B|--4-4-4-4-4-4--|                   |--3-3-3-3-3-3-3-3--3-3-3--|  times


1st VERSE

A|------------------|  Play      |--------------------------|  Play
E|------------------|  eight     |--------------------------|  eight
B|--3-3-3-3--3-3-3--|  times     |--4-4-4-4-4-4-4-4--4-4-4--|  times

  Hey you!...

A|------------------|  Play
E|------------------|  seven 
B|--3-3-3-3--3-3-3--|  times
  
  Hey you!...


CHORUS:

D|----------------------------------------------|  Play
A|----------------------------7-7-7-7--5-5-5-5--|  four
E|--7-7-7--9-9-9--5-5-5--7-7--------------------|  times
B|----------------------------------------------|

  All these years...


2nd VERSE

A|--------------------------|    Play
E|--------------------------|    eight
B|--4-4-4-4-4-4-4-4--4-4-4--|    times


A|------------------|  Play
E|------------------|  eight
B|--3-3-3-3--3-3-3--|  times

  Wake up...


2nd CHORUS:

A|----------------------------7-7-7-7--5-5-5-5--|  Play 
E|--7-7-7--9-9-9--5-5-5--7-7--------------------|  four
B|----------------------------------------------|  times

  All these years...


A|-----7--5-----------7/8--8--|   Play
E|--7--------7--7--7----------|   four
B|----------------------------|   times


D|--------------------------------------|  Play
A|---------7-7--5-5-------7-7-7/8--8-8--|  four
E|--7-7-7------------7-7----------------|  times
B|--------------------------------------|


3rd VERSE

A|------------------------|  Play     |------------------------|
E|------------------------|  three    |---------------------3--|
B|--3-3-3-3-3-3-3-3--2-3--|  times    |--3-3-3-3-3-3-3-3-2-----|


(I'm not to sure about this following part, so if anyone can figure it
out PLEASE feel free to correct it.)

E|------------------|  Two     |--3-3--|   |------------------| 2X |-2-2-|
B|--3-3-2-0--3-2-0--|  times   |-------|   |--3-3-2-0--3-2-0--|    |-----|

A|-------------------------|  Play   |-------------------------|
E|-------------------------|  three  |----------------------3--|
B|--3-3-3-3-3-3-3-3--2--3--|  times  |--3-3-3-3-3-3-3-3--2-----|

  Persist for resistance...

A|--------------------------|  Play
E|--------------------------|  eight
B|--3-3-3-3-3-3-3-3--3-3-3--|  times


PLAY THE 2nd CHORUS


Oh, if anybody can play at a thrash speed with their fingers, please
e-mail me on how to do it. Thanx.

masare@wam.umd.edu. 



Suggest correction
Give kudos to tab author, rate the tab!
1 2 3 4 5
comments
print report bad tab
guest
You may want to rate the tab now too:
select rating
Wanna post a correction for this tab? Suggest correction