Oops, an error
Loading. Please wait.

Slave Labor tab

version 3
version 3

Whole song

Interactive

3,754 views 1 this week
no commentswrite comment
1 2 3 4 5
1 last vote to show rating
add to favorites
×
Save as Personal and add changes to this tab that will be seen only by you. Learn more ›
×
You can save this tab as Personal to edit and correct it or add notes. All changes will be seen only by you. Learn more »
launch autoscroll
font size
0
reset
how to read this tab
guitar tuner
edit
Autoscroll
slow
fast
+/-
esc
set tempo
stop
#----------------------------------PLEASE NOTE---------------------------------#
#This file is the author's own work and represents their interpretation of the #
#song. You may only use this file for private study, scholarship, or research. #
#------------------------------------------------------------------------------#

SLAVE LABOR
As recorded by Fear Factory
(From the 2004 Album ARCHETYPE)

Transcribed by rx aka. iskim86
        

Words and Music by Fear Factory
Arranged by Fear Factory

Gtr I (B E A D G B E) - 'Guitar'
Gtr II (B E A D G B E) - 'Guitar'
Gtr III (B E A D G B E) - 'Heavy Effect'
Gtr IV (B E A D G B E) - 'Heavy Effect'
Gtr V (B E A D G B E) - 'Synthesizer'

   Intro
    Q=190
    N.C.
   4/4
    Gtrs I, II, III, IV
    PM-----------------------------------------------
    E S S E E S S E E S S   E E S S E S S E S S E  3x
||------------------------|------------------------||
||------------------------|------------------------||
||o-----------------------|-----------------------o||
||------------------------|------------------------||
||o-----------------------|-----------------------o||
||------------------------|------------------------||
||--4-3-3-3-3-3-3-3-4-3-3-|-3-4-3-3-3-3-3-3-3-3-3--||


 ---------------------------------------|
  E S S E E S S E E S S   E E S S E S S E Q
|-----------------------|---------------------|
|-----------------------|---------------------|
|-----------------------|---------------------|
|-----------------------|---------------------|
|-----------------------|---------------------|
|-----------------------|---------------------|
|-4-3-3-3-3-3-3-3-4-3-3-|-3-4-3-3-3-3-3-3-----|


    PM-----------------------------------------------
    E S S E E S S E E S S   E E S S E S S E S S E  3x
||------------------------|------------------------||
||------------------------|------------------------||
||o-----------------------|-----------------------o||
||------------------------|------------------------||
||o-----------------------|-----------------------o||
||------------------------|------------------------||
||--4-3-3-3-3-3-3-3-4-3-3-|-3-4-3-3-3-3-3-3-3-3-3--||


 -------------------------------------------------|
  E S S E E S S E E S S   E E S S E S S S S S S S S
|-----------------------|---------------------------|
|-----------------------|---------------------------|
|-----------------------|---------------------------|
|-----------------------|---------------------------|
|-----------------------|---------------------------|
|-----------------------|---------------------------|
|-4-3-3-3-3-3-3-3-4-3-3-|-3-4-3-3-3-4-4-4-4-4-4-4-4-|


    PM-----------------------------------------------
    E S S E E S S E E S S   E E S S E S S E S S E  3x
||------------------------|------------------------||
||------------------------|------------------------||
||o-----------------------|-----------------------o||
||------------------------|------------------------||
||o-----------------------|-----------------------o||
||------------------------|------------------------||
||--4-3-3-3-3-3-3-3-4-3-3-|-3-4-3-3-3-3-3-3-3-3-3--||


 -------------------------------------------------|
  E S S E E S S E E S S   E E S S E S S S S S S S S
|-----------------------|---------------------------|
|-----------------------|---------------------------|
|-----------------------|---------------------------|
|-----------------------|---------------------------|
|-----------------------|---------------------------|
|-----------------------|---------------------------|
|-4-3-3-3-3-3-3-3-4-3-3-|-3-4-3-3-3-4-4-4-4-4-4-4-4-|


 Pre-Verse
  PM------------------------------------|
  E S S E E S S E E S S   E E S S E S S E Q
|-----------------------|--------------------|
|-----------------------|--------------------|
|-----------------------|--------------------|
|-----------------------|--------------------|
|-----------------------|--------------------|
|-----------------------|--------------------|
|-4-3-3-3-3-3-3-3-4-3-3-|-3-4-3-3-3-3-3-3----|


  PM------------------------------------------|
  E S S E E S S E E S S   E E S S E S S E S S E
|-----------------------|-----------------------|
|-----------------------|-----------------------|
|-----------------------|-----------------------|
|-----------------------|-----------------------|
|-----------------------|-----------------------|
|-----------------------|-----------------------|
|-4-3-3-3-3-3-3-3-4-3-3-|-3-4-3-3-3-3-3-3-3-3-3-|


   Verse
    PM------------|      PM------------|
    E S S E E S S E Q    E S S E E S S E Q
||---------------------|--------------------|
||---------------------|--------------------|
||o--------------------|--------------------|
||---------------------|--------------------|
||o--------------------|--------------------|
||---------------------|--------------------|
||--4-3-3-3-3-3-3-3----|-4-3-3-3-3-3-3-3----|


  PM------------|      PM------------------|
  E S S E E S S E Q    E S S E E S S E S S E   4x
|--------------------|-------------------------||
|--------------------|-------------------------||
|--------------------|------------------------o||
|--------------------|-------------------------||
|--------------------|------------------------o||
|--------------------|-------------------------||
|-4-3-3-3-3-3-3-3----|-4-3-3-3-3-6-6-6-6-6-6---||


 Pre-Chorus
  F5                F5                Eb5               Eb5
                                                        PM------------|
  E E E E E E E E   E E E E E E E E   E E E E E E E E   E E E E E E E E
|-----------------|-----------------|-----------------|------------------|
|-----------------|-----------------|-----------------|------------------|
|-----------------|-----------------|-----------------|------------------|
|-----------------|-----------------|-----------------|------------------|
|-8-8-8-8-8-8-8-8-|-8-8-8-8-8-8-8-8-|-6-6-6-6-6-6-6-6-|-6-6-6-6-6-6-6-6--|
|-8-8-8-8-8-8-8-8-|-8-8-8-8-8-8-8-8-|-6-6-6-6-6-6-6-6-|-6-6-6-6-6-6-6-6--|
|-6-6-6-6-6-6-6-6-|-6-6-6-6-6-6-6-6-|-4-4-4-4-4-4-4-4-|-4-4-4-4-4-4-4-4--|


   Chorus
    D5                                D5
    S S S S S S S S S S S S S S S S   S S S S S S S S S S S S S S S S
||----------------------------------|---------------------------------|
||----------------------------------|---------------------------------|
||o---------------------------------|---------------------------------|
||----------------------------------|---------------------------------|
||o---------------------------------|---------------------------------|
||--5-5-5-5-5-5-5-5-5-5-5-5-5-5-5-5-|-5-5-5-5-5-5-5-5-5-5-5-5-5-5-5-5-|
||--3-3-3-3-3-3-3-3-3-3-3-3-3-3-3-3-|-3-3-3-3-3-3-3-3-3-3-3-3-3-3-3-3-|


  C5                                Eb5
                                                    PM------|
  S S S S S S S S S S S S S S S S   S S S S S S S S E S S E E
|---------------------------------|---------------------------|
|---------------------------------|---------------------------|
|---------------------------------|---------------------------|
|---------------------------------|---------------------------|
|---------------------------------|---------------------------|
|-3-3-3-3-3-3-3-3-3-3-3-3-3-3-3-3-|-6-6-6-6-6-6-6-6-6-6-6-6-6-|
|-1-1-1-1-1-1-1-1-1-1-1-1-1-1-1-1-|-4-4-4-4-4-4-4-4-4-4-4-4-4-|


  D5                                D5
  S S S S S S S S S S S S S S S S   S S S S S S S S S S S S S S S S
|---------------------------------|---------------------------------|
|---------------------------------|---------------------------------|
|---------------------------------|---------------------------------|
|---------------------------------|---------------------------------|
|---------------------------------|---------------------------------|
|-5-5-5-5-5-5-5-5-5-5-5-5-5-5-5-5-|-5-5-5-5-5-5-5-5-5-5-5-5-5-5-5-5-|
|-3-3-3-3-3-3-3-3-3-3-3-3-3-3-3-3-|-3-3-3-3-3-3-3-3-3-3-3-3-3-3-3-3-|


  F5                                Eb5
                                                    PM------|
  S S S S S S S S S S S S S S S S   S S S S S S S S E S S E E
|---------------------------------|----------------------------||
|---------------------------------|----------------------------||
|---------------------------------|---------------------------o||
|---------------------------------|----------------------------||
|---------------------------------|---------------------------o||
|-8-8-8-8-8-8-8-8-8-8-8-8-8-8-8-8-|-6-6-6-6-6-6-6-6-6-6-6-6-6--||
|-6-6-6-6-6-6-6-6-6-6-6-6-6-6-6-6-|-4-4-4-4-4-4-4-4-4-4-4-4-4--||


   Pre-Verse
    EbD5
    PM-----------------------------------------------
    E S S E E S S E E S S   E E S S E S S E S S E  3x
||------------------------|------------------------||
||------------------------|------------------------||
||o-----------------------|-----------------------o||
||------------------------|------------------------||
||o-----------------------|-----------------------o||
||--6-5-5-5-5-5-5-5-5-5-5-|-5-5-5-5-5-5-5-5-5-5-5--||
||--4-3-3-3-3-3-3-3-3-3-3-|-3-3-3-3-3-3-3-3-3-3-3--||


  EbD5                              Eb5
 -------------------------------------------------|
  E S S E E S S E E S S   E E S S E S S S S S S S S
|-----------------------|---------------------------|
|-----------------------|---------------------------|
|-----------------------|---------------------------|
|-----------------------|---------------------------|
|-----------------------|---------------------------|
|-6-5-5-5-5-5-5-5-5-5-5-|-5-5-5-5-5-6-6-6-6-6-6-6-6-|
|-4-3-3-3-3-3-3-3-3-3-3-|-3-3-3-3-3-4-4-4-4-4-4-4-4-|


    PM-----------------------------------------------
    E S S E E S S E E S S   E E S S E S S E S S E  3x
||------------------------|------------------------||
||------------------------|------------------------||
||o-----------------------|-----------------------o||
||------------------------|------------------------||
||o-----------------------|-----------------------o||
||--6-5-5-5-5-5-5-5-5-5-5-|-5-5-5-5-5-5-5-5-5-5-5--||
||--4-3-3-3-3-3-3-3-3-3-3-|-3-3-3-3-3-3-3-3-3-3-3--||


 -------------------------------------------------|
  E S S E E S S E E S S   E E S S E S S S S S S S S
|-----------------------|---------------------------|
|-----------------------|---------------------------|
|-----------------------|---------------------------|
|-----------------------|---------------------------|
|-----------------------|---------------------------|
|-6-5-5-5-5-5-5-5-5-5-5-|-5-5-5-5-5-6-6-6-6-6-6-6-6-|
|-4-3-3-3-3-3-3-3-3-3-3-|-3-3-3-3-3-4-4-4-4-4-4-4-4-|


   Verse
    N.C.
    PM------------|                            PM------------------|
    E S S E E S S E Q    W          W          E S S E E S S E S S E
||---------------------|----------|----------|------------------------||
||---------------------|----------|----------|------------------------||
||o--------------------|----------|----------|-----------------------o||
||---------------------|----------|----------|------------------------||
||o--------------------|----------|----------|-----------------------o||
||---------------------|----------|----------|------------------------||
||--4-3-3-3-3-3-3-3----|----------|----------|-4-3-3-3-3-6-6-6-6-6-6--||


    PM------------|      PM------------|
    E S S E E S S E Q    E S S E E S S E Q
||---------------------|--------------------|
||---------------------|--------------------|
||o--------------------|--------------------|
||---------------------|--------------------|
||o--------------------|--------------------|
||---------------------|--------------------|
||--4-3-3-3-3-3-3-3----|-4-3-3-3-3-3-3-3----|


  PM------------|      PM------------------|
  E S S E E S S E Q    E S S E E S S E S S E
|--------------------|-------------------------||
|--------------------|-------------------------||
|--------------------|------------------------o||
|--------------------|-------------------------||
|--------------------|------------------------o||
|--------------------|-------------------------||
|-4-3-3-3-3-3-3-3----|-4-3-3-3-3-6-6-6-6-6-6---||


 Pre-Chorus
  F5                F5                Eb5               Eb5
                                                        PM------------|
  E E E E E E E E   E E E E E E E E   E E E E E E E E   E E E E E E E E
|-----------------|-----------------|-----------------|------------------|
|-----------------|-----------------|-----------------|------------------|
|-----------------|-----------------|-----------------|------------------|
|-----------------|-----------------|-----------------|------------------|
|-8-8-8-8-8-8-8-8-|-8-8-8-8-8-8-8-8-|-6-6-6-6-6-6-6-6-|-6-6-6-6-6-6-6-6--|
|-8-8-8-8-8-8-8-8-|-8-8-8-8-8-8-8-8-|-6-6-6-6-6-6-6-6-|-6-6-6-6-6-6-6-6--|
|-6-6-6-6-6-6-6-6-|-6-6-6-6-6-6-6-6-|-4-4-4-4-4-4-4-4-|-4-4-4-4-4-4-4-4--|


   Chorus
    D5                                D5
    S S S S S S S S S S S S S S S S   S S S S S S S S S S S S S S S S
||----------------------------------|---------------------------------|
||----------------------------------|---------------------------------|
||o---------------------------------|---------------------------------|
||----------------------------------|---------------------------------|
||o---------------------------------|---------------------------------|
||--5-5-5-5-5-5-5-5-5-5-5-5-5-5-5-5-|-5-5-5-5-5-5-5-5-5-5-5-5-5-5-5-5-|
||--3-3-3-3-3-3-3-3-3-3-3-3-3-3-3-3-|-3-3-3-3-3-3-3-3-3-3-3-3-3-3-3-3-|


  C5                                Eb5
                                                    PM------|
  S S S S S S S S S S S S S S S S   S S S S S S S S E S S E E
|---------------------------------|---------------------------|
|---------------------------------|---------------------------|
|---------------------------------|---------------------------|
|---------------------------------|---------------------------|
|---------------------------------|---------------------------|
|-3-3-3-3-3-3-3-3-3-3-3-3-3-3-3-3-|-6-6-6-6-6-6-6-6-6-6-6-6-6-|
|-1-1-1-1-1-1-1-1-1-1-1-1-1-1-1-1-|-4-4-4-4-4-4-4-4-4-4-4-4-4-|


  S S S S S S S S S S S S S S S S   S S S S S S S S S S S S S S S S
|---------------------------------|---------------------------------|
|---------------------------------|---------------------------------|
|---------------------------------|---------------------------------|
|---------------------------------|---------------------------------|
|---------------------------------|---------------------------------|
|-5-5-5-5-5-5-5-5-5-5-5-5-5-5-5-5-|-5-5-5-5-5-5-5-5-5-5-5-5-5-5-5-5-|
|-3-3-3-3-3-3-3-3-3-3-3-3-3-3-3-3-|-3-3-3-3-3-3-3-3-3-3-3-3-3-3-3-3-|


  F5                                Eb5
                                                    PM------|
  S S S S S S S S S S S S S S S S   S S S S S S S S E S S E E
|---------------------------------|----------------------------||
|---------------------------------|----------------------------||
|---------------------------------|---------------------------o||
|---------------------------------|----------------------------||
|---------------------------------|---------------------------o||
|-8-8-8-8-8-8-8-8-8-8-8-8-8-8-8-8-|-6-6-6-6-6-6-6-6-6-6-6-6-6--||
|-6-6-6-6-6-6-6-6-6-6-6-6-6-6-6-6-|-4-4-4-4-4-4-4-4-4-4-4-4-4--||


   Breakdown
    N.C.
    Gtrs III, IV
    S S E +E  E E E Q    S S E +E  E +E  E Q
||---------------------|----------------------|
||---------------------|----------------------|
||o--------------------|----------------------|
||---------------------|----------------------|
||o--------------------|----------------------|
||---------------------|----------------------|
||--4-4-3-(3)-3-4-4-3--|-4-4-3-(3)-4-(4)-4-3--|


  S S E +E  E E E Q    S S E +E  E +E  E E E
|--------------------|-------------------------||
|--------------------|-------------------------||
|--------------------|------------------------o||
|--------------------|-------------------------||
|--------------------|------------------------o||
|--------------------|-------------------------||
|-4-4-3-(3)-3-4-4-3--|-4-4-3-(3)-4-(4)-4-3-----||


   Bridge
    Eb5 D5      Eb5 D5     N.C.
    Gtrs I, II, III, IV
    S S E +E  E E E Q  16x E E E E E E E E   E E E E E E E E
||----------------------||-----------------|-----------------|
||----------------------||-----------------|-----------------|
||o--------------------o||-----------------|-----------------|
||----------------------||-----------------|-----------------|
||o-6-6-5-(5)-5-6-6-5--o||-----------------|-----------------|
||--6-6-5-(5)-5-6-6-5---||-----------------|-----------------|
||--4-4-3-(3)-3-4-4-3---||-6-6-6-6-6-6-6-6-|-4-4-4-4-4-4-4-4-|


    Eb5 D5      Eb5 D5     N.C.
    S S E +E  E E E Q   8x E E E E E E E E   E E E E E E E E
||----------------------||-----------------|-----------------|
||----------------------||-----------------|-----------------|
||o--------------------o||-----------------|-----------------|
||----------------------||-----------------|-----------------|
||o-6-6-5-(5)-5-6-6-5--o||-----------------|-----------------|
||--6-6-5-(5)-5-6-6-5---||-----------------|-----------------|
||--4-4-3-(3)-3-4-4-3---||-6-6-6-6-6-6-6-6-|-4-4-4-4-4-4-4-4-|


  D5  Eb5 D5  Eb5   Eb5
  PM------------------------------|
  E E E E E E E E   E E E E E E E E
|-----------------|-----------------|
|-----------------|-----------------|
|-----------------|-----------------|
|-----------------|-----------------|
|-5-5-6-6-5-5-6-6-|-6-6-6-6-6-6-6-6-|
|-5-5-6-6-5-5-6-6-|-6-6-6-6-6-6-6-6-|
|-3-3-4-4-3-3-4-4-|-4-4-4-4-4-4-4-4-|


   Chorus
    D5                                D5
    S S S S S S S S S S S S S S S S   S S S S S S S S S S S S S S S S
||----------------------------------|---------------------------------|
||----------------------------------|---------------------------------|
||o---------------------------------|---------------------------------|
||----------------------------------|---------------------------------|
||o---------------------------------|---------------------------------|
||--5-5-5-5-5-5-5-5-5-5-5-5-5-5-5-5-|-5-5-5-5-5-5-5-5-5-5-5-5-5-5-5-5-|
||--3-3-3-3-3-3-3-3-3-3-3-3-3-3-3-3-|-3-3-3-3-3-3-3-3-3-3-3-3-3-3-3-3-|


  C5                                Eb5
                                                    PM------|
  S S S S S S S S S S S S S S S S   S S S S S S S S E S S E E
|---------------------------------|---------------------------|
|---------------------------------|---------------------------|
|---------------------------------|---------------------------|
|---------------------------------|---------------------------|
|---------------------------------|---------------------------|
|-3-3-3-3-3-3-3-3-3-3-3-3-3-3-3-3-|-6-6-6-6-6-6-6-6-6-6-6-6-6-|
|-1-1-1-1-1-1-1-1-1-1-1-1-1-1-1-1-|-4-4-4-4-4-4-4-4-4-4-4-4-4-|


  D5                                D5
  S S S S S S S S S S S S S S S S   S S S S S S S S S S S S S S S S
|---------------------------------|---------------------------------|
|---------------------------------|---------------------------------|
|---------------------------------|---------------------------------|
|---------------------------------|---------------------------------|
|---------------------------------|---------------------------------|
|-5-5-5-5-5-5-5-5-5-5-5-5-5-5-5-5-|-5-5-5-5-5-5-5-5-5-5-5-5-5-5-5-5-|
|-3-3-3-3-3-3-3-3-3-3-3-3-3-3-3-3-|-3-3-3-3-3-3-3-3-3-3-3-3-3-3-3-3-|


  F5                                Eb5
                                                    PM------|
  S S S S S S S S S S S S S S S S   S S S S S S S S E S S E E
|---------------------------------|----------------------------||
|---------------------------------|----------------------------||
|---------------------------------|---------------------------o||
|---------------------------------|----------------------------||
|---------------------------------|---------------------------o||
|-8-8-8-8-8-8-8-8-8-8-8-8-8-8-8-8-|-6-6-6-6-6-6-6-6-6-6-6-6-6--||
|-6-6-6-6-6-6-6-6-6-6-6-6-6-6-6-6-|-4-4-4-4-4-4-4-4-4-4-4-4-4--||


   Outro
    EbD5
    PM-----------------------------------------------
    E S S E E S S E E S S   E E S S E S S E S S E  3x
||------------------------|------------------------||
||------------------------|------------------------||
||o-----------------------|-----------------------o||
||------------------------|------------------------||
||o-----------------------|-----------------------o||
||--6-5-5-5-5-5-5-5-5-5-5-|-5-5-5-5-5-5-5-5-5-5-5--||
||--4-3-3-3-3-3-3-3-3-3-3-|-3-3-3-3-3-3-3-3-3-3-3--||


  EbD5                              Eb5
 -------------------------------------------------|
  E S S E E S S E E S S   E E S S E S S S S S S S S
|-----------------------|---------------------------|
|-----------------------|---------------------------|
|-----------------------|---------------------------|
|-----------------------|---------------------------|
|-----------------------|---------------------------|
|-6-5-5-5-5-5-5-5-5-5-5-|-5-5-5-5-5-6-6-6-6-6-6-6-6-|
|-4-3-3-3-3-3-3-3-3-3-3-|-3-3-3-3-3-4-4-4-4-4-4-4-4-|


    EbD5
    PM-----------------------------------------------
    E S S E E S S E E S S   E E S S E S S E S S E  3x
||------------------------|------------------------||
||------------------------|------------------------||
||o-----------------------|-----------------------o||
||------------------------|------------------------||
||o-----------------------|-----------------------o||
||--6-5-5-5-5-5-5-5-5-5-5-|-5-5-5-5-5-5-5-5-5-5-5--||
||--4-3-3-3-3-3-3-3-3-3-3-|-3-3-3-3-3-3-3-3-3-3-3--||


  EbD5
 ---------------------------------------|
  E S S E E S S E E S S   E E S S E S S E Q
|-----------------------|----------------------*|
|-----------------------|----------------------*|
|-----------------------|----------------------*|
|-----------------------|----------------------*|
|-----------------------|----------------------*|
|-6-5-5-5-5-5-5-5-5-5-5-|-5-5-5-5-5-5-5-5------*|
|-4-3-3-3-3-3-3-3-3-3-3-|-3-3-3-3-3-3-3-3------*|



Duration Legend
---------------
W - whole; H - half; Q - quarter; E - 8th; S - 16th; T - 32nd; X - 64th; a - acciaccatura
+ - note tied to previous; . - note dotted; .. - note double dotted
Uncapitalized letters represent notes that are staccato (1/2 duration)
Irregular groupings are notated above the duration line
Duration letters will always appear directly above the note/fret number it represents the
duration for.  Duration letters with no fret number below them represent rests.  Multi-
bar rests are notated in the form Wxn, where n is the number of bars to rest for.  Low
melody durations appear below the staff

Tablature Legend
----------------
 h   - hammer-on
 p   - pull-off
 b   - bend
 pb  - pre-bend
 r   - bend release (if no number after the r, then release immediately)
 /\  - slide into or out of (from/to "nowhere")
 s   - legato slide
 S   - shift slide
 - natural harmonic
[n]  - artificial harmonic
n(n) - tapped harmonic
 ~   - vibrato
 tr  - trill
 T   - tap
 TP  - trem. picking
 PM  - palm muting
\n/  - tremolo bar dip; n = amount to dip
 \n  - tremolo bar down
 n/  - tremolo bar up
/n\  - tremolo bar inverted dip
 =   - hold bend; also acts as connecting device for hammers/pulls
 <> - volume swell (louder/softer)
 x   - on rhythm slash represents muted slash
 o   - on rhythm slash represents single note slash

Misc Legend
-----------
 |  - bar
||  - double bar
||o - repeat start
o|| - repeat end
*|  - double bar (ending)
 :  - bar (freetime)
 $  - Segno
 &  - Coda
Tempo markers -  = BPM(8/16=s8/s16), where s8 = swing 8ths, s16 = swing 16ths


            
            
Suggest correction
Creating personal tab
Creating personal tab
You can edit any tab online and save it as your Personal.

You can edit, replace or remove any tab part or add personal notes – all changes will be seen only by you.

Personal tabs can be accessed anytime from any device, even offline.
Learn more »
Give kudos to tab author, rate the tab!
1 2 3 4 5
comments
print report bad tab
guest
You may want to rate the tab now too:
select rating
Wanna post a correction for this tab? Suggest correction