Oops, an error
Loading. Please wait.

Smasher Devourer Tab

version 3
version 3

Whole song

Interactive

440 views 1 this week
3 commentsread comments
1 2 3 4 5
1 last vote to show rating
add to favorites
launch autoscroll
font size
0
reset
how to read this tab
guitar tuner
×
Best way to learn
"Smasher Devourer"
Autoscroll
slow
fast
+/-
esc
set tempo
stop
          SMASHER/DEVOURER 
          by 
          FEAR FACTORY 
 
          6-string >> tuned 3.5 step down 
                   >> TUNING = A D G C F A 
          7-string >> tuned 1 step down 
                   >> TUNING = A D G C F A D 
 
          X=MUFFLED STRINGS 
          *=PALM MUTING 
          ==TREMOLO PICKING 
          ---------------------------------------------------------------------------------------------- 
          Song: Smasher/Devourer 
          Artist: Fear Factory 
          Album: Obsolete 
          Label: Roadrunner Records 
 
          Dry Lung Vocal Martyr:  Burton C. Bell 
          Heavy Duty Scarifier:  Dino Cazares 
          Total Harmonic Distortion:  Christian Olde Wolbers 
          Maximum Effective Pulse Generator:  Raymond Herrera 
 
          For questions, remarks or changes e-mail me at: ditmar@garbage.com 
 
          Tabbed by Ditmar 
          ---------------------------------------------------------------------------------------------- 
 
          RIFF A: 
          A|-----------------------------| 
          F|-----------------------------| 
          C|-----------------------------| 
          G|-----------------------------| 
          D|-----------------------------| 
          A|--4---3-3---4---3-3---4---3--| 
              *   * *   *   * *   *   * 
          RIFF B: 
          A|-------------| 
          F|-------------| 
          C|-------------| 
          G|-------------| 
          D|-------------| 
          A|-4-4-4-4-4-4-| 
             * * * * * * 
          RIFF C: 
          A|-------------------------------| 
          F|-------------------------------| 
          C|-------------------------------| 
          G|-------------------------------| 
          D|--5----5--5--5-----7----10--6--| 
          A|--3----5--4--3-----5----8---4--| 
 
          RIFF D: 
          A|---------------------|---------------------| 
          F|---------------------|---------------------| 
          C|---------------------|---------------------| 
          G|---------------------|---------------------| 
          D|--5---5--5--5--5--5--|--8---8--8--8--8--8--| 
          A|--3---5--3--5--3--5--|--6---8--6--8--6--8--| 
 
          A|---------------------|---------------------| 
          F|---------------------|---------------------| 
          C|---------------------|---------------------| 
          G|---------------------|---------------------| 
          D|--3---3--3--3--3--3--|--3---3--3--3--3--3--| 
          A|--1---3--1--3--1--3--|--0---3--0--3--3--3--| 
 
          RIFF E: 
          A|--------------------| 
          F|--------------------| 
          C|--------------------| 
          G|--------------------| 
          D|-XX-5---------------| 
          A|-XX-3---------------| 
 
          RIFF F: 
          A|------------------|------------------|------------------|--------------| 
          F|------------------|------------------|------------------|--------------| 
          C|------------------|------------------|------------------|--------------| 
          G|------------------|------------------|------------------|--------------| 
          D|------------------|------------------|------------------|--------------| 
          A|--3-----4-4--4-4--|--3-----4-4--4-4--|--3-----4-4--4-4--|--4--4--4--4--| 
              *     * *  * *     *     * *  * *     *     * *  * *     *  *  *  * 
          RIFF G: 
          A|---------------------------------------------| 
          F|---------------------------------------------| 
          C|---------------------------------------------| 
          G|---------------------------------------------| 
          D|---------------------------------------------| 
          A|---3-3-3---5-5---4---3-3-3----5-5----8----4--| 
               * * *   * *   *   * * *    * *    *    * 
                             ====                     ==== 
          RIFF H: 
          A|---------------------------------------------------------------| 
          F|---------------------------------------------------------------| 
          C|---------------------------------------------------------------| 
          G|---------------------------------------------------------------| 
          D|---5-5-5-5---5-5-5---5-5-5---5-5-5-----7-7-----1010----6-6-6---| 
          A|---3-3-3-3---5-5-5---4-4-4---3-3-3-----5-5-----8-8-----4-4-4---| 
               * * * *   * * *   * * *   * * *     * *     * *     * * * 
 
          RIFF A    4X 
          RIFF B 
          RIFF A    4X 
          RIFF B 
          RIFF A    4X 
          RIFF B 
          RIFF A    4X 
          RIFF B    2X 
          RIFF A    16X 
          RIFF C    4X 
          RIFF A    4X 
          RIFF B 
          RIFF A    4X 
          RIFF B 
          RIFF A    12X 
          RIFF B 
          RIFF A    4X 
          RIFF C    8X 
          RIFF D    4X 
          RIFF E    2X 
          RIFF F    10X 
          RIFF D    4X 
          SILENCE 
          RIFF G    4X 
          RIFF C    4X 
          RIFF H    4X 
          RIFF A    4X 
          RIFF B 
          RIFF A    4X 
          RIFF B 
          RIFF A    4X 
          RIFF B 
          RIFF A 
          RIFF B 
          RIFF A    3X 
          RIFF B    2X
Suggest correction
Give kudos to tab author, rate the tab!
1 2 3 4 5
comments
print report bad tab
3 comments total.
0 reply
peter.buzasi.7 33 Oct 31, 2013 01:47 AM

Sorry, this tab is wrong on most of the parts.

0 reply
peter.buzasi.7 33 Jun 22, 2014 11:05 PM

RIFF C:
A|-------------------------------|
F|-------------------------------|
C|-------------------------------|
G|------------------------5------|
D|--5----7--6--5-----7----3---6--|
A|--3----5--4--3-----5--------4--|

0 reply
peter.buzasi.7 33 Jun 22, 2014 11:09 PM

RIFF D:
A|---------------------|---------------------|
F|---------------------|---------------------|
C|---------------------|---------------------|
G|--5---5--5--5--5--5--|--5---5--5--5--5--5--|
D|--3---5--3--5--3--5--|--2---5--2--5--2--5--|
A|---------------------|---------------------|

A|---------------------|---------------------|
F|---------------------|---------------------|
C|---------------------|---------------------|
G|--3---3--3--3--3--3--|--3---3--3--3--3--3--|
D|--1---3--1--3--1--3--|--0---3--0--3--3--3--|
A|---------------------|---------------------|

TWICE, then:

A|---------------------|---------------------|
F|---------------------|---------------------|
C|---------------------|---------------------|
G|--5---5--5--5--5--5--|--5---5--5--5--5--5--|
D|--3---5--3--5--5--5--|--2---5--2--5--5--5--|
A|---------------------|---------------------|

A|---------------------|---------------------|
F|---------------------|---------------------|
C|---------------------|---------------------|
G|--3---3--3--3--3--3--|--3---3--3--3--3--3--|
D|--1---3--1--3--3--3--|--0---3--0--3--3--3--|
A|---------------------|---------------------|

guest
You may want to rate the tab now too:
select rating
Wanna post a correction for this tab? Suggest correction