Oops, an error
Loading. Please wait.

Snitches Are A Dying Breed Tab

241 views 1 this week
no commentswrite comment
1 2 3 4 5
please rate
add to favorites
launch autoscroll
font size
0
reset
how to read this tab
guitar tuner
Tab Pro tools
  • play this tab
  • loop segment
  • change instrument
  • show fretboard
  • metronome
×
Best way to learn
"Snitches Are A Dying Breed"
Autoscroll
slow
fast
+/-
esc
set tempo
stop
Artist:	Fear Factory
Song:	Snitches Are A Dying Breed
Tuning:	BEADGBe
Tabbed by: J Ashurst

I first heard this song on the Teckademics Mischief DVDs. It's an awesome sounding 
song and played this way is quite simple.

I've played this using a 7 string, though it could be played on a 6 string with 
"C" tuning perhaps - i haven't tried this.

Intro
(It's not 100% right, but it's close i think)

e|---------9-----------/5~~~~----------------------------------|
B|----/7------9~~~~---------------/7~~~~~----------------------|
G|-------------------------------------------------------------|
D|-------------------------------------------------------------|
A|-------------------------------------------------------------|
E|-------------------------------------------------------------|
B|-------------------------------------------------------------|	x1

Main Riff / Verse - Heavy Distortion

e|-------------------------------------------------------------|  -|
B|-------------------------------------------------------------|   |
G|-------------------------------------------------------------|   |
D|-------------4--4-4-4----5--5-5-5---7--7-7-7-----------------|   |	
A|--2--2-2-2---4--4-4-4----5--5-5-5---7--7-7-7-----------------|   |
E|--2--2-2-2---2--2-2-2----3--3-3-3---5--5-5-5-----------------|   |
B|--0--0-0-0---------------------------------------------------|   |	
								   |-->x2
e|-------------------------------------------------------------|   |
B|-------------------------------------------------------------|   |
G|-------------------------------------------------------------|   |
D|-------------4--4-4-4----5--5-5-5---2--2-2-2-----------------|   |
A|--2--2-2-2---4--4-4-4----5--5-5-5---2--2-2-2-----------------|   |
E|--2--2-2-2---2--2-2-2----3--3-3-3---0--0-0-0-----------------|   |
B|--0--0-0-0---------------------------------------------------|  _|



e|-------------------------------------------------------------|
B|-------------------------------------------------------------|
G|-------------------------------------------------------------|
D|-------------------------------------------------------------|
A|-------------------------------------------------------------|
E|------1^2---0------------------------------------------------|
B|--0-0-----0----0-0-1-0-0-------------------------------------|	x4

<>

e|-------------------------------------------------------------|
B|-------------------------------------------------------------|
G|-------------------------------------------------------------|
D|-------------4--4-4-4----5--5-5-5---2--2-2-2-----------------|
A|--2--2-2-2---4--4-4-4----5--5-5-5---2--2-2-2-----------------|
E|--2--2-2-2---2--2-2-2----3--3-3-3---0--0-0-0-----------------|
B|--0--0-0-0---------------------------------------------------|	x1
    .  . . .   .  . . .    .  . . .   .  . . .


<>

e|-------------------------------------------------------------|
B|-------------------------------------------------------------|
G|-------------------------------------------------------------|
D|-------------4--4-4-4----5--5-5-5---2--2-2-2-----------------|
A|--2--2-2-2---4--4-4-4----5--5-5-5---2--2-2-2-----------------|
E|--2--2-2-2---2--2-2-2----3--3-3-3---0--0-0-0-----------------|
B|--0--0-0-0---------------------------------------------------|	x1
    .  . . .   .  . . .    .  . . .   .  . . .

<>

Bridge (I guess this is what you could call it)

e|-------------------------------------------------------------|
B|-------------------------------------------------------------|
G|-------------------------------------------------------------|
D|-------------------------------------------------------------|
A|-------------------------------------------------------------|
E|-------------------------------------------------------------|
B|--0-0-0----0-0-0----0-0-0----0-0-0-2-2-2-0-0-0-0-------------|	x6

<>

e|-------------------------------------------------------------|   -|
B|-------------------------------------------------------------|    |
G|-------------------------------------------------------------|    |
D|-------------4--4-4-4----5--5-5-5---7--7-7-7-----------------|    |
A|--2--2-2-2---4--4-4-4----5--5-5-5---7--7-7-7-----------------|    |
E|--2--2-2-2---2--2-2-2----3--3-3-3---5--5-5-5-----------------|    |
B|--0--0-0-0---------------------------------------------------|    |
    .  . . .   .  . . .    .  . . .   .  . . .			    |->x2 
								    |
e|-------------------------------------------------------------|    |
B|-------------------------------------------------------------|    |
G|-------------------------------------------------------------|    |
D|-------------4--4-4-4----5--5-5-5---2--2-2-2-----------------|    |
A|--2--2-2-2---4--4-4-4----5--5-5-5---2--2-2-2-----------------|    |
E|--2--2-2-2---2--2-2-2----3--3-3-3---0--0-0-0-----------------|    |
B|--0--0-0-0---------------------------------------------------|   _|
    .  . . .   .  . . .    .  . . .   .  . . .

******** Don't palm mute when playing the second time ************

Lead Played over above riffs 2nd time round

e|-------------------------------------------------------------|
B|-------------------------------------------------------------|
G|----12~~~  12~~~----13~~~-----10~~~--------------------------|
D|-------------------------------------------------------------|
A|-------------------------------------------------------------|
E|-------------------------------------------------------------|
B|-------------------------------------------------------------|	x2

e|-------------------------------------------------------------|
B|-------------------------------------------------------------|
G|-------------------------------------------------------------|
D|-------------------------------------------------------------|
A|-------------------------------------------------------------|
E|------1^2---0------------------------------------------------|
B|--0-0-----0----0-0-1-0-0-------------------------------------|	x4

e|-------------------------------------------------------------|
B|-------------------------------------------------------------|
G|-------------------------------------------------------------|
D|-------------------------------------------------------------|
A|-------------------------------------------------------------|
E|-------------------------------------------------------------|
B|--0-0-0----0-0-0----0-0-0----0-0-0-2-2-2-0-0-0-0-------------|	x4

e|-------------------------------------------------------------|
B|-------------------------------------------------------------|
G|----12~~~--12~~~----13~~~-----10~~~--------------------------|
D|-------------------------------------------------------------|
A|-------------------------------------------------------------|
E|-------------------------------------------------------------|
B|-------------------------------------------------------------|	x4

There's a few solo's i've missed cause i couldn't work them out, but thats the 
general jist of the song i spose.

First tab i've posted so be gentle! lol

Comments / Suggestions please send to mungrel_5.7@hotmail.com

Please Rate it. :)
comments
We did not receive enough feedback on this tab! Please rate:
print report bad tab
1 2 3 4 5
I want to post or [tab]
guest
You may want to rate the tab now too:
select rating
Please do not post tabs as comments. Select "correction" instead!