Oops, an error
Loading. Please wait.

What Will Become Tab

version 2
version 2

Whole song

Interactive

554 views 1 this week
2 commentsread comments
1 2 3 4 5
worth learning
x 3
add to favorites
launch autoscroll
font size
0
reset
how to read this tab
guitar tuner
Tab Pro tools
  • play this tab
  • loop segment
  • change instrument
  • show fretboard
  • metronome
×
Best way to learn
"What Will Become"
Autoscroll
slow
fast
+/-
esc
set tempo
stop
Contributor
Difficulty
Tuning
intermediate
B F# B E G# C#
Song: What Will Become?
Artist: Fear Factory
Album: Digimortal

Tuning: Drop B(They use a 7-string but this works just as good for the song)
Tabbed by: Tyler Marley

Tab Legend:
. palm mute
/ slide up
\ slide down
h hammer on 
p pull off
b( ) bend specified number of steps
= let ring

Sorry, you'll have to figure out which effects to use if you have them.

Intro (clean w/effect)
C#|----------------------|----------------------|----------------------|
G#|----------------------|----------------------|----------------------|
 E|----------------------|----------------------|----------------------|
 B|----------------------|----------------------|----------------------|
F#|----------------------|----------------------|----------------------|
 B|-0-0-0-1p0-0-0-0-0-1--|-0-0-0-1p0-0-0-0-0-1--|-0-0-0-1p0-0-0-0-0-1--|
pm      .     .     .          .     .     .          .     .     .

C#|----------------------|----------------------|----------------------|
G#|----------------------|----------------------|----------------------|
 E|----------------------|----------------------|----------------------|
 B|----------------------|----------------------|----------------------|
F#|----------------------|----------------------|----------------------|
 B|-0-0-0-1p0-0-0-0-0-1--|-0-0-0-1p0-0-0-0-0-1--|-0-0-0-1p0-0-0-0-0-1--|
pm      .     .     .          .     .     .          .     .     .    

C#|----------------------|----------------------|
G#|----------------------|----------------------|
 E|----------------------|----------------------|
 B|----------------------|----------------------|
F#|----------------------|----------------------|
 B|-0-0-0-1p0-0-0-0-0-1--|-0-0------------------|
pm      .     .     .     


Intro/Chorus (dist.)
C#|----------------------|----------------------|----------------------|
G#|----------------------|----------------------|----------------------|
 E|----------------------|----------------------|----------------------|
 B|----------------------|----------------------|----------------------|
F#|----------------------|----------------------|----------------------|
 B|-0-0-0-1p0-0-0-0-0-1--|-0-0-0-1p0-0-0-0-0-1--|-0-0-0-1p0-0-0-0-0-1--|
pm      .     .     .          .     .     .          .     .     .   
 
                      w/effect
C#|---------------------------|----------------------|---------------------|
G#|---------------------------|----------------------|---------------------|
 E|-------------------7b(1/4)-|----------------------|---------------------|
 B|-------------------x-------|----------------------|---------------------|
F#|-------------------5b(1/4)-|----------------------|---------------------|
 B|-0-0-0-1p0-0-0-0-0---------|-0-0-0-1p0-0-0-0-0-1--|-0-0-0-1p0-0-0-0-0-1-|
pm      .     .     .               .     .     .          .     .     .
 
                                             w/effect
C#|----------------------|---------------------------|---------------------|
G#|----------------------|---------------------------|---------------------|
 E|----------------------|-------------------7b(1/4)-|---------------------|
 B|----------------------|-------------------x-------|---------------------|
F#|----------------------|-------------------5b(1/4)-|---------------------|
 B|-0-0-0-1p0-0-0-0-0-1--|-0-0-0-1p0-0-0-0-0---------|---------------------|
pm      .     .     .          .     .     . let ring======================


Verse
C#|-----------------------------|-----------------------------|
G#|-----------------------------|-----------------------------|
 E|-----------------------------|---------------------9-10-10-|
 B|-----------------------------|---------------------9-10-10-|
F#|-5-5-5-5555555-5-5-5-5555555-|-5-5-5-5555555-5-5-5-7-8--8--|
 B|-5-5-5-5555555-5-5-5-5555555-|-5-5-5-5555555-5-5-5---------|
pm  . . . ....... . . . .......   . . . ....... . . .

C#|-----------------------------|----------------------------|
C#|-----------------------------|----------------------------|
 E|-----------------------------|---------------------10-9-9-|
 B|-----------------------------|---------------------10-9-9-|
F#|-5-5-5-5555555-5-5-5-5555555-|-5-5-5-5555555-5-5-5-8--7-7-|
 B|-5-5-5-5555555-5-5-5-5555555-|-5-5-5-5555555-5-5-5--------|
pm  . . . ....... . . . .......   . . . ....... . . .

C#|-----------------------------|-----------------------------|
G#|-----------------------------|-----------------------------|
 E|-----------------------------|---------------------9-10-10-|
 B|-----------------------------|---------------------9-10-10-|
F#|-5-5-5-5555555-5-5-5-5555555-|-5-5-5-5555555-5-5-5-7-8--8--|
 B|-5-5-5-5555555-5-5-5-5555555-|-5-5-5-5555555-5-5-5---------|
pm  . . . ....... . . . .......   . . . ....... . . .

C#|-----------------------------|-----------------------------|
G#|-----------------------------|-----------------------------|
 E|-----------------------------|-----------------------------|
 B|-----------------------------|-----------------------------|
F#|-5-5-5-5555555-5-5-5-5555555-|-5-5-5-5555555-5-5-5-5555555-|
 B|-5-5-5-5555555-5-5-5-5555555-|-5-5-5-5555555-5-5-5-5555555-|
pm  . . . ....... . . . .......   . . . ....... . . . .......


Pre-Chorus
C#|-------------|-------------|-------------|-------------|
G#|-------------|-------------|-------------|-------------|
 E|---3-----3---|---3-----7---|---3-----3---|---3---------|
 B|-3---3-4---4-|-5---5-6---4-|-3---3-4---4-|-5---5-6-----|
F#|-3---3-4---4-|-5---5-6---4-|-3---3-4---4-|-5---5-6-----|
 B|-3---3-4---4-|-5---5-6---4-|-3---3-4---4-|-5---5-6-----|
                                                    let ring


Chorus-same as intro



Verse



Pre-Chorus



Chorus



Interlude
C#|-----------------------|-----------------------|-----------------------|
G#|-----------------------|-----------------------|-----------------------|
 E|-----------------------|-----------------------|-----------------------|
 B|-----------------------|-----------------------|-----------------------|
F#|-0000000000-0000000000-|-0000000000-0000000000-|-0000000000-0000000000-|
 B|-0000000000-0000000000-|-0000000000-0000000000-|-0000000000-0000000000-|
pm  .......... ..........   .......... ..........   .......... ..........

                           
C#|-----------------------|
G#|-----------------------|
 E|-----------------------|
 B|-----------------------|
F#|-0000000000-0000003333-|
 B|-0000000000-0000003333-|
pm  .......... ..........  

  (_)- Guitar 2
C#|(18)---------|-------------|(17)---------|-------------|
G#|-------------|-------------|----(19)-----|-------------|
 E|---3-----3---|---3-----7---|---3-----3---|---3---------|
 B|-3---3-4---4-|-5---5-6---4-|-3---3-4---4-|-5---5-6-----|2x
F#|-------------|-------------|-------------|-------------|
 B|-------------|-------------|-------------|-------------|
  clean w/effect



Pre-Chorus
C#|-------------|-------------|-------------|-------------|
G#|-------------|-------------|-------------|-------------|
 E|---3-----3---|---3-----7---|---3-----3---|---3-----7---|
 B|-3---3-4---4-|-5---5-6---4-|-3---3-4---4-|-5---5-6---4-|
F#|-3---3-4---4-|-5---5-6---4-|-3---3-4---4-|-5---5-6---4-|
 B|-3---3-4---4-|-5---5-6---4-|-3---3-4---4-|-5---5-6---4-|



Then
C#|----------------|----------------|----------------|-----------------|
G#|----------------|----------------|----------------|-----------------|
 E|----------------|----------------|----------------|-----------------|
 B|-3--3-3--4--4-4-|-5--5-5--6--6-4-|-3--3-3--4--4-4-|-5--5-5--6-6-6-6-|
F#|-3--3-3--4--4-4-|-5--5-5--6--6-4-|-3--3-3--4--4-4-|-5--5-5--6-6-6-6-|
 B|-3--3-3--4--4-4-|-5--5-5--6--6-4-|-3--3-3--4--4-4-|-5--5-5--6-6-6-6-|
  "No! You will not see..."

C#|-----------------|
G#|-----------------|
 E|-----------------|
 B|-6-6-6-6-6-6-6-6-|
F#|-6-6-6-6-6-6-6-6-|
 B|-6-6-6-6-6-6-6-6-|



Chorus



Then
C#|---------------------|      |----------------------|
G#|---------------------|      |----------------------|
 E|-7-7-7-8\7-7-7-7-7-8-|      |----------------------|
 B|-x-x-x-x---x-x-x-x-x-|4x    |----------------------|4x
F#|-5-5-5-6\5-5-5-5-5-6-|      |----------------------|
 B|---------------------|      |-0-0-0-1p0-0-0-0-0-1--|
 "What will become!"         pm      .     .     .


 That's it!  I hope you enjoy playing it as much as I did.


If you have any questions or corrections you can contact me at tyler.marley@hotmail.com.

Please Rate!





comments
We did not receive enough feedback on this tab! Please rate:
print report bad tab
1 2 3 4 5
2 comments total.
-1 reply
traskman wrote on December 13 2007, 03:31 pm

dude, this tab rocks! nicely done.

0 reply
peter.buzasi.7 wrote on October 31 2013, 05:37 am

No this tab is wrong. This song is in 7 string standard B tuning. The arranging is wrong in some parts. The interlude is a D5, not B, etc etc...

I want to post or [tab]
guest
You may want to rate the tab now too:
select rating
Please do not post tabs as comments. Select "correction" instead!