Oops, an error
Loading. Please wait.

Pull You Down bass

112 views 1 this week
no commentswrite comment
1 2 3 4 5
3 more votes to show rating
add to favorites
×
Save as Personal and add changes to this tab that will be seen only by you. Learn more ›
×
You can save this tab as Personal to edit and correct it or add notes. All changes will be seen only by you. Learn more »
launch autoscroll
font size
0
reset
guitar tuner
edit
Autoscroll
slow
fast
+/-
esc
set tempo
stop
----------------------------------------------------------------------------
        	Misc Unsigned Bands - PULL YOU DOWN - FeaR OF CLoWNS
----------------------------------------------------------------------------

Tabbed By : Jeff Heilman aka (SKeFRee JaMeS)
Myspace Url : http://www.myspace.com/FEAROFCLOWNSBAND
            : http://www.myspace.com/jeffheilman

Tuning:G#-C#-G#-C#-F#  half step/dropped

(( Intro with effect ))
(( WHATS DONE IS DONE, CANT BE FORGOTTEN, ONCE TEARS ARE SHED ))
F#|-----------------------------------------------------------------------------|
C#|-12-0-12-0-13-0-0-12-0-12-0-13-0-12-0-12-0-12-0-13-0-------------------------|
G#|-----------------------------------------------------------------------------|
C#|-----------------------------------------------------------------------------|
G#|-----------------------------------------------------------------------------|

((PRE CHORUS))
(( YOUR ON MY SHITLIST, ITS TIME TO RELAX, YOU ARE THE ONE, THAT WANTED ME BACK, WE LIVE
A WORLD, WITH THOSE WHO ABUSE, THIS IS YOUR FAULT, AND BROUGHT ON BY YOU ))

F#|-----------------------------------------------------------------------------|
C#|-----------------------------------------------------------------------------|
G#|-----------------------------------------------------------------------------|
C#|-3-0-3-6-5-0-3-0-3-6-5-0-----------------------------------------------------|
G#|-----------------------------------------------------------------------------|


----REPEAT THE 2 ABOVE TWICE----

(( CHORUS ))
(( WELL YOU TRY TO DENY, BUT YOU CANT RECONIZE, WHEN YOUR TRYING TO FLY WELL, I WILL 
YOU DOWN ))

F#|---------------------3-3-5-3-1------7-5-7-5----------------------------------|
C#|-----0-0-3-2-0-----3--------------7------------------------------------------|
G#|-----------------1--------------5--------------------------------------------|
C#|-0-0-----------------------------------------6-5-3-5-3-1---------------------|
G#|-----------------------------------------------------------------------------|


(( RYTHYM TO SOLO ))

F#|-----------------------------------3--------7--------------------------------|
C#|---------------------------0-----3--------5----------------------------------|
G#|-----1-------------------------1---------------------------------------------|
C#|-0-3---6-5-3-5-3-1-----0-0--------------5------6-5-3-5-3-1-0-0-0-0-0-0-0-----|
G#|-----------------------------------------------------------------------------|


THE PART WITH 6-5-3-5-3-1 REPEATS OCCASIONALLY IN THE SONG

I WROTE THIS SO I KNOW ITS TABBED TO PERFECTION, ENJOY!!

FEAR OF CLOWNS (c)

            
            
Suggest correction
Creating personal tab
Creating personal tab
You can edit any tab online and save it as your Personal.

You can edit, replace or remove any tab part or add personal notes – all changes will be seen only by you.

Personal tabs can be accessed anytime from any device, even offline.
Learn more »
Give kudos to tab author, rate the tab!
1 2 3 4 5
comments
print report bad tab
guest
You may want to rate the tab now too:
select rating
Wanna post a correction for this tab? Suggest correction