Oops, an error
Loading. Please wait.

Neon In The Dance Halls bass

168 views 3 this week
no commentswrite comment
1 2 3 4 5
2 more votes to show rating
add to favorites
×
Save as Personal and add changes to this tab that will be seen only by you. Learn more ›
×
You can save this tab as Personal to edit and correct it or add notes. All changes will be seen only by you. Learn more »
launch autoscroll
font size
0
reset
guitar tuner
edit
Autoscroll
slow
fast
+/-
esc
set tempo
stop
Intro
G|-----------------------------------------------------------------|
D|-----------------------------------------------------------------|
A|-3---3---3---3---5---5---5---5---6---6---6---6-------------------|
D|-------------------------------------------------6---6---6-6-6-6-|
   1 + 2 + 3 + 4 + 1 + 2 + 3 + 4 + 1 + 2 + 3 + 4 + 1 + 2 + 3 + 4 +

G|-------------------------------------------------------------------------------------------------|
D|-------------------------------------------------------------------------------------------------|
A|-----------------3---3---1---1-------------------1---1---1---1---3---3---3---3-3-\---------------|
D|-5---5---5---5-------------------6---6---6---6---------------------------------------------------|
   1 + 2 + 3 + 4 + 1 + 2 + 3 + 4 + 1 + 2 + 3 + 4 + 1 + 2 + 3 + 4 + 1 + 2 + 3 + 4 + 1 + 2 + 3 + 4 +

Verse 0:16
G|-----------------------------------------------------------------|
D|-------------------------------4-5-r-5-r-5-r-5-r-5-r-5-r-5-r-5---|
A|-3-r-3-r-3-r-3-/-8-r-8-r-8-r-8---------------------------------1-|
D|-----------------------------------------------------------------|
   1 + 2 + 3 + 4 + 1 + 2 + 3 + 4 + 1 + 2 + 3 + 4 + 1 + 2 + 3 + 4 +

G|-----------------------------------------------------------------|
D|-------------1-1-3-r-3-r-----------------------------------------|
A|-3-r-3-r-3-1-----------------------------------------------------|
D|-------------------------3-r-3-4-5-r-5-r-5-r-5-r-5-r-5-r-5-r-5-8-|
   1 + 2 + 3 + 4 + 1 + 2 + 3 + 4 + 1 + 2 + 3 + 4 + 1 + 2 + 3 + 4 +

G|-----------------------------------------------------------------|
D|-----------------------------------------------------------------|
A|---------------3-1-r-1-r-1-r-1-5-3-r-3-r-3-r-3-5-6r-6r-6-6-6-6-6-|
D|-6-r-6-r-6-r-6---------------------------------------------------|
   1 + 2 + 3 + 4 + 1 + 2 + 3 + 4 + 1 + 2 + 3 + 4 + 1 + 2 + 3 + 4 +

G|-----------------------------------------------------------------|
D|-----------------------------------------------------------------|
A|---------------1---------------1---------------------------------|
D|-3-r-3-r-3-r-3---3-r-3-r-3-r-3---5-r-5-r-5-r-5-5-5/17--r---------|
   1 + 2 + 3 + 4 + 1 + 2 + 3 + 4 + 1 + 2 + 3 + 4 + 1 + 2 + 3 + 4 +

Chorus 0:41
G|-----------------------------------------------------------------|
D|-----------------------------------------------------------------|
A|-3---3---5---5-5-6---6-6-6---------------------------------------|
D|---------------------------1-1-8-6---6-6-6---6-6-5-5-5-5-5-5-5-5-|
   1 + 2 + 3 + 4 + 1 + 2 + 3 + 4 + 1 + 2 + 3 + 4 + 1 + 2 + 3 + 4 +

G|-----------------------------------------------------------------|
D|-----------------------------------------------------------------|
A|-3-3-3-3-5---5---6---6-6-6---------------------------------------|
D|---------------------------1-1-8-6-6-6-6-6-6-6---5-5-5---5-5-5---|
   1 + 2 + 3 + 4 + 1 + 2 + 3 + 4 + 1 + 2 + 3 + 4 + 1 + 2 + 3 + 4 +

0:53
G|-----------------------------------------------------------------|
D|-----------------------------------------------------------------|
A|---------------------------------------------------3---3---------|
D|-6666--6---6-6-7---8---8-888888885555--5---5-5555--------88888888|
   1 + 2 + 3 + 4 + 1 + 2 + 3 + 4 + 1 + 2 + 3 + 4 + 1 + 2 + 3 + 4 +

G|-----------------------------------------------------------------|
D|-----------------------------------------------------------------|
A|-----------------------------3-5-6---------6-6-6-2---2---2---2-\-|
D|-6666--6---6-6-7---8---8-8888------------------------------------|
   1 + 2 + 3 + 4 + 1 + 2 + 3 + 4 + 1 + 2 + 3 + 4 + 1 + 2 + 3 + 4 +

Interlude
G|-----------------------------------------------------------------|
D|---------66665---------------5-----------66665-------------------|
A|-33333333------------------------33333333------------------------|
D|-------------------5-5-5-6666--------------------5-5-5-5-/17\----|
   1 + 2 + 3 + 4 + 1 + 2 + 3 + 4 + 1 + 2 + 3 + 4 + 1 + 2 + 3 + 4 +

Verse 1:12
G|-----------------------------------------------------------------|
D|-----------------3-r-3-r-----------------------------------7---8-|
A|-3-r-3-r-3-r-5-6-------------------------------------------------|
D|-------------------------3-1-3-4-5-r-5-r-5-r-5-r-5-5-6---7---8---|
   1 + 2 + 3 + 4 + 1 + 2 + 3 + 4 + 1 + 2 + 3 + 4 + 1 + 2 + 3 + 4 +

G|-----------------------------------------------------------------|
D|-----------------------------------------------------------------|
A|-3-r-3-r-3-r-5-6-8-\---------------------------------------------|
D|---------------------------------5-r-5-r-5-r-5-8-5-r-5-r-5-r-5-8-|
   1 + 2 + 3 + 4 + 1 + 2 + 3 + 4 + 1 + 2 + 3 + 4 + 1 + 2 + 3 + 4 +

G|-----------------------------------------------------------------|
D|-----------------------------------------------------------------|
A|---------------3-1-r-1-r-1-r-1-5-3-r-3-r-3-r-3-5-6r-6r-6-6-6-6-6-|
D|-6-r-6-r-6-r-6---------------------------------------------------|
   1 + 2 + 3 + 4 + 1 + 2 + 3 + 4 + 1 + 2 + 3 + 4 + 1 + 2 + 3 + 4 +

G|-----------------------------------------------------------------|
D|-----------------------------------------------------------------|
A|---------------1---------------1---------------------------------|
D|-3-r-3-r-3-r-3---3-r-3-r-3-r-3---5---5---5-5-5-5-5-\-------------|
   1 + 2 + 3 + 4 + 1 + 2 + 3 + 4 + 1 + 2 + 3 + 4 + 1 + 2 + 3 + 4 +

Chorus 1:37
G|-----------------------------------------------------------------|
D|-----------------------------------------------------------------|
A|-3---3---5---5-5-6---6-6-6---------------------------------------|
D|---------------------------1-1-8-6---6-6-6---6-6-5-5-5-5-5-5-5-5-|
   1 + 2 + 3 + 4 + 1 + 2 + 3 + 4 + 1 + 2 + 3 + 4 + 1 + 2 + 3 + 4 +

G|-----------------------------------------------------------------|
D|-----------------------------------------------------------------|
A|-3-3-3-3-5---5---6---6-6-6---------------------------------------|
D|---------------------------1-1-8-6-6-6-6-6-6-6---5-5-5---5-5-5---|
   1 + 2 + 3 + 4 + 1 + 2 + 3 + 4 + 1 + 2 + 3 + 4 + 1 + 2 + 3 + 4 +

G|-----------------------------------------------------------------|
D|-----------------------------------------------------------------|
A|---------------------------------------------------3---3---------|
D|-6666--6---6-6-7---8---8-888888885555--5---5-5555--------88888888|
   1 + 2 + 3 + 4 + 1 + 2 + 3 + 4 + 1 + 2 + 3 + 4 + 1 + 2 + 3 + 4 +

G|-----------------------------------------------------------------|
D|-----------------------------------------------------------------|
A|-----------------------------3-5-6---6-6---6-6-6-----------------|
D|-6666--6---6-6-7---8---8-8888--------------------8---8-8---8-8-5-|
   1 + 2 + 3 + 4 + 1 + 2 + 3 + 4 + 1 + 2 + 3 + 4 + 1 + 2 + 3 + 4 +

2:01
G|---------------------------------|
D|---------------------------------|
A|---------------------------------|
D|-6---6-6-6-6-6-6-9-9-9-9-9-9-9-9-|
   1 + 2 + 3 + 4 + 1 + 2 + 3 + 4 + 

Interlude 2:05
G|-----------------------------------------------------------------|
D|-----------------------------------------------------------------|
A|-----------------------------------------------------------------|
D|-10------------------------------10-\-r--------------------------|
   1 + 2 + 3 + 4 + 1 + 2 + 3 + 4 + 1 + 2 + 3 + 4 + 1 + 2 + 3 + 4 +

G|-------------------------------------------------------------------------|
D|-------------------------------------------------3-----------------------|
A|----------------------------------------------------3--6-5---------------|
D|-10--------------------------/---15-\-r----------------------------------|
   1 + 2 + 3 + 4 + 1 + 2 + 3 + 4 + 1 + 2 + 3 + 4 + 1 + 2 + 3 + 4 + 5 + 6 +

G|---------------------------------|
D|-5b------------------------------|
A|---------------------------------|
D|---------------------------------|
   1 + 2 + 3 + 4 + 1 + 2 + 3 + 4 + 

Bridge 2:21
G|-----------------------------------------------------------------|
D|---------------------------------------------------------5-5-5-5-|
A|-3-----5-6-3---3-3-----3-3-3-3-4-5-------------------------------|
D|---------------------------------------0-0-0-0-6-5-----5---------|
   1 + 2 + 3 + 4 + 1 + 2 + 3 + 4 + 1 + 2 + 3 + 4 + 1 + 2 + 3 + 4 +

G|-----------------------------------------------------------------|
D|-----------------------------------------------------------------|
A|-3-----5-6-3---3-3-----3-3-3-3-4-5-----5-5-5-5-5-----------------|
D|-------------------------------------------------5-\-------------|
   1 + 2 + 3 + 4 + 1 + 2 + 3 + 4 + 1 + 2 + 3 + 4 + 1 + 2 + 3 + 4 +

Bridge 2:33
G|-----------------------------------------------------------------|
D|-3---3---3---3---3---3---3---6---5---5---5---5---5---5---5---5---|
A|-----------------------------------------------------------------|
D|-----------------------------------------------------------------|
   1 + 2 + 3 + 4 + 1 + 2 + 3 + 4 + 1 + 2 + 3 + 4 + 1 + 2 + 3 + 4 +

G|-----------------------------------------------------------------|
D|-------------------------------5-----------------5---5---5-5-5-5-|
A|-6---6---6---6---6---6---6-8-6---8---8---8---8-------------------|
D|-----------------------------------------------------------------|
   1 + 2 + 3 + 4 + 1 + 2 + 3 + 4 + 1 + 2 + 3 + 4 + 1 + 2 + 3 + 4 +

2:46
G|-----------------------------------------------------------------|
D|-----------1---1-----------1---1-----------3---3---------3-1-0---|
A|-------1-3---1---------1-3---1---1---1---1---1---1---1---------3-|
D|-6---6-----------6---6-------------------------------------------|
   1 + 2 + 3 + 4 + 1 + 2 + 3 + 4 + 1 + 2 + 3 + 4 + 1 + 2 + 3 + 4 +

G|-----------------------------------------------------------------|
D|---------------------------------5-5-5-r-5-5-r-5-r-5-5-r-5-5-5-5-|
A|-----------3---3-----------3---3---------------------------------|
D|-3---3-5-6---6---3---3-5-6---6-----------------------------------|
   1 + 2 + 3 + 4 + 1 + 2 + 3 + 4 + 1 + 2 + 3 + 4 + 1 + 2 + 3 + 4 +

Rest

Chorus 3:05
G|---5---5---7---7---8---8---8---8---------------------------------|
D|-----------------------------------------------------------------|
A|-3---3---5---5---6---6---6---6-----------------------------------|
D|---------------------------------6-\-----------------------------|
   1 + 2 + 3 + 4 + 1 + 2 + 3 + 4 + 1 + 2 + 3 + 4 + 1 + 2 + 3 + 4 +

3:11
G|-----------------------------------------------------------------|
D|-----------------------------------------------------------------|
A|-3---3---5---5---6---6-6-6-6-6-6---------------------------------|
D|---------------------------------6-6-6-6-6---6-6-5-5-5---5-5-5-5-|
   1 + 2 + 3 + 4 + 1 + 2 + 3 + 4 + 1 + 2 + 3 + 4 + 1 + 2 + 3 + 4 +

G|-----------------------------------------------------------------|
D|-----------------------------------------------------------------|
A|-3-3-3-3-5-5-5---6---6-6-6-6-6-6---------------------------------|
D|---------------------------------6-6-6---6-6-6-6-5-5-5---5---5---|
   1 + 2 + 3 + 4 + 1 + 2 + 3 + 4 + 1 + 2 + 3 + 4 + 1 + 2 + 3 + 4 +

Outro Chorus 3:23
G|-----------------------------------------------------------------|
D|-----------------------------------------------------------------|
A|-----------------1-1---1-1-------3-3---3-3-----------------------|
D|-6-6---6-6---------------------------------------5-5---5-5-------|
   1 + 2 + 3 + 4 + 1 + 2 + 3 + 4 + 1 + 2 + 3 + 4 + 1 + 2 + 3 + 4 +

G|-----------------------------------------------------------------|
D|-----------------------------------------------------------------|
A|-----------------1-1---1-1-------3-3---3-3-------r---------------|
D|-6-6---6-6-------------------------------------------------------|
   1 + 2 + 3 + 4 + 1 + 2 + 3 + 4 + 1 + 2 + 3 + 4 + 1 + 2 + 3 + 4 +

3:35
G|-----------------------------------------------------------------|
D|-------------------------------------------------------5-5-3-----|
A|-----------------1-1-1-1-1-1-1-1-3-3-3---3-3-3-3-----5-------6-5-|
D|-6-6-6-6-6-6-6-6---------------------------------5-5-------------|
   1 + 2 + 3 + 4 + 1 + 2 + 3 + 4 + 1 + 2 + 3 + 4 + 1 + 2 + 3 + 4 +

G|-----------------------------------------------------------------|
D|-----------------------------------------------------------------|
A|-----------------1-1-1-1-1-1-3-5-6-6-6-6-6-6-6-6-2-2-2-2-2-2-2-2-|
D|-6-6-6-6-6---6-6-------------------------------------------------|
   1 + 2 + 3 + 4 + 1 + 2 + 3 + 4 + 1 + 2 + 3 + 4 + 1 + 2 + 3 + 4 +

G|---------------------------------|
D|---------------------------------|
A|-3---3---------------------------|
D|---------66665-------------------|
   1 + 2 + 3 + 4 + 1 + 2 + 3 + 4 +
Tabbed by Dave Vucko

            
            
Suggest correction
Creating personal tab
Creating personal tab
You can edit any tab online and save it as your Personal.

You can edit, replace or remove any tab part or add personal notes – all changes will be seen only by you.

Personal tabs can be accessed anytime from any device, even offline.
Learn more »
Give kudos to tab author, rate the tab!
1 2 3 4 5
comments
print report bad tab
guest
You may want to rate the tab now too:
select rating
Wanna post a correction for this tab? Suggest correction