Oops, an error
Loading. Please wait.

Palace In Flames Bass Tab

version 1
version 1

Whole song

1,830 views 1 this week
no commentswrite comment
1 2 3 4 5
please rate
add to favorites
launch autoscroll
font size
0
reset
guitar tuner
Autoscroll
slow
fast
+/-
esc
set tempo
stop
Help us to improve Ultimate-Guitar.com Take our survey!
×
Author
Difficulty
intermediate
ARTIST: FEARLESS VAMPIRE KILLERS
SONG: PALACE IN FLAMES
ALBUM: MILITIA OF THE LOST
http://fearlessvampirekillers.co.uk/

Standard tuning (EADG)

Key:
~  ring
/  slide up

-----------------------------------------------------------

Palace in flames...
G|--------------------------------------------------5---------5--|
D|--------------------------------------------6---6-----6---6----|
A|----------------------------------------------6---------6------|
E|--6-666--8-888--9-999--4-444--2-222--2-222----------4----------|

G|--------------------------------------------------5---------5--|
D|--------------------------------------------6---6-----6---6----|
A|----------------------------------------------6---------6------|
E|--6-666--8-888--9-999--4-444--4-6-8--2-222----------4----------|

Riffy bit
G|------------------------------|
D|-------23-----23-----23-------|
A|--1---1--1---1--1---1--1-1-0--|   x2
E|-----1------1------1----------|

Two days earlier...
G|-------------------------------------|
D|--------3----------------------------|
A|--11111------------------------------|   x2
E|---------122222-44444-6-2-11111-2-4--|

I saw her at the ball...
G|----------------|
D|-------------6--|
A|--------46------|
E|--2-4/6----4----|

Who is she?
G|-----------------------------|
D|-----------------------3-----|
A|--4-6-8--3-4-6--1-3-4-6-643--|
E|-----------------------------|

It seems that she's controlled...
G|-----------------|
D|-----------------|
A|--------46-------|
E|--2-4/6----4-55--|

By the cardinal! (riffy bit again)
G|------------------------------|
D|-------23-----23-----23-------|
A|--1---1--1---1--1---1--1-1-0--|   x2
E|-----1------1------1----------|

The king asks for me...
G|-------------------------------------|
D|--------3----------------------------|
A|--11111------------------------------|   x2
E|---------122222-44444-6-2-11111-2-4--|

Yet she still clouds my mind...
G|----------------|
D|-------------6--|
A|--------46------|
E|--2-4/6----4----|

Who is she?
G|-----------------------------|
D|-----------------------3-----|
A|--4-6-8--3-4-6--1-3-4-6-643--|
E|-----------------------------|

And now I realise...
G|-----------------|
D|-----------------|
A|--------46-------|
E|--2-4/6----4-55--|

She's the kings desire...
G|-----------------------------------------------------------65-----|
D|-------------------------------------------------------------6----|
A|--------------------------------------------------------------6---|
E|--6-666--6-666--8-888--8-888--9-999--9-999--2-222--2-222--4----4--|

This could be mutiny!
G|--------33-----------55---------------1010---------------22------|
D|------44--44-------66--66---------1111----1111---------33--33----|
A|----44------44---66------66---1111------------1111---33------33--|
E|--22-----------44-----------99---------------------11------------|

                                    ^^^^^^^^^^^      ^
                                   (10s and 11s)    (1s)

In his private room...
G|---------------------------------------------------------------------------------|
D|-----------11--------------------------------------------------------------------|
A|--1-3/11-9----8-8-11-8/12-12-15--13-13-13-13-------------------------------------|
E|------------------------------------------------2-222--2-222--4-444-4-444-4-6-2-1|

But enter I the prince...
G|-------------------65---|
D|----------------6----8--|
A|--------46---6/8-8------|
E|--2-4/6----4------------|

To kill him...
G|-----------------------------|
D|-----------------------3-----|
A|--4-6-8--3-4-6--1-3-4-6-643--|
E|-----------------------------|

A candle to the ground...
G|--------------|
D|--------------|
A|--------46----|
E|--2-4/6----4--|

Palace in flames...
G|--------------------------------------------------5---------5--|
D|--------------------------------------------6---6-----6---6----|
A|----------------------------------------------6---------6------|
E|--6-666--8-888--9-999--4-444--2-222--2-222----------4----------|

G|--------------------------------------------------5---------5--|
D|--------------------------------------------6---6-----6---6----|
A|----------------------------------------------6---------6------|
E|--6-666--8-888--9-999--4-444--2-222--2-222----------4----------|

Outro
G|-----5--568-----5--568------|
D|--6-6--6-----6-6--6---------|
A|---6----------6-------------|
E|------------------------6~--|
Suggest correction
Give kudos to tab author, rate the tab!
1 2 3 4 5
comments
print report bad tab
guest
You may want to rate the tab now too:
select rating
Please do not post tabs as comments. Select "correction" instead!