Oops, an error
Loading. Please wait.

The Mechanist Handlung Stargazer bass

592 views 1 this week
4 commentsread comments
1 2 3 4 5
x 3
add to favorites
×
Save as Personal and add changes to this tab that will be seen only by you. Learn more ›
×
You can save this tab as Personal to edit and correct it or add notes. All changes will be seen only by you. Learn more »
launch autoscroll
font size
0
reset
guitar tuner
edit
Autoscroll
slow
fast
+/-
esc
set tempo
stop
Author
Difficulty
0:07
G|-----------------------------------------------------------------|
D|-----------------------------------------------------------------|
A|-5-5-----4-4-----2-2-----0-0-------------0-0-----555555555--/-\--|
E|---------------------------------3-3-----------------------------|
   1 + 2 + 3 + 4 + 1 + 2 + 3 + 4 + 1 + 2 + 3 + 4 + 1 + 2 + 3 + 4 +

Verse 0:13
G|-------7-6-------------6-4-----------4-----4---4-----2-----------|
D|-----7-----7-5-------6-----6-4-----4---4-----------2---2-----5-7-|
A|---5-----------7---4-----------7-2-------2---2---0-------0-5-----|
E|-----------------------------------------------------------------|
   1 + 2 + 3 + 4 + 1 + 2 + 3 + 4 + 1 + 2 + 3 + 4 + 1 + 2 + 3 + 4 +

G|---------------------------------------------2-------------------|
D|-----5-----5---5---5---5-5-4-----------2---2---2-----------4-5-7-|
A|---5---5-------------5-------5-3-0---0---0-------0---0-5-7-------|
E|-3-------3---3---3-----------------------------------------------|
   1 + 2 + 3 + 4 + 1 + 2 + 3 + 4 + 1 + 2 + 3 + 4 + 1 + 2 + 3 + 4 +

G|---------9-7-12-7-\-----------------4-------4---------------------|
D|-------7------------------------------4---4---4-------------------|
A|---5-7--------------5-5-5-5-5-4-4-2-----2-------2---0---0---0---0-|
E|------------------------------------------------------------------|
   1 + 2 + 3 +  4 + 1 + 2 + 3 + 4 + 1 + 2 + 3 + 4 + 1 + 2 + 3 + 4 +

G|-----------------------------------------------------------------|
D|-------------------------------------------------4-5-4-------4-5-|
A|-------4-5-4-5-4-5-5-5-4---2-4-5-0-0-0-4-5-7-5-7-------7-5-7-----|
E|-3-3-3-------------------3---------------------------------------|
   1 + 2 + 3 + 4 + 1 + 2 + 3 + 4 + 1 + 2 + 3 + 4 + 1 + 2 + 3 + 4 +

Pre Chorus 0:39
G|-----------------7-7-7-7-7-7-7-7-\---------------7-7-7-7-7-7-7-7-|
D|-/-\-0-0-0-0-0-0---------------------0-0-0-0-0-0-----------------|
A|-----------------------------------------------------------------|
E|-----------------------------------------------------------------|
   1 + 2 + 3 + 4 + 1 + 2 + 3 + 4 + 1 + 2 + 3 + 4 + 1 + 2 + 3 + 4 +

G|-7-7-------------6-7---6-------------7-------7-------777-777-7777|
D|-----0-0-0-0-0-0-----9---7-9-5-7-0-------0-----------------------|
A|-----------------------------------------------------------------|
E|-----------------------------------------------------------------|
   1 + 2 + 3 + 4 + 1 + 2 + 3 + 4 + 1 + 2 + 3 + 4 + 1 + 2 + 3 + 4 +

Chorus 0:50
G|-------------------------------------9-7-----9-7-----------------|
D|-----7---------------------------------------------------------5-|
A|-5-----5-5-5-5-4-3-3-2-2-----------------------------------5-7---|
E|-------------------------3-3-3-3-/-------------------------------|
   1 + 2 + 3 + 4 + 1 + 2 + 3 + 4 + 1 + 2 + 3 + 4 + 1 + 2 + 3 + 4 +

G|-----------------------------------------------------------------|
D|---------5-7-----------0-2-------------5-----------------5-4---4-|
A|-0-0-0-0-----0---0-0-0-----0-3-2---------5-------------------5---|
E|---------------------------------3---3-----5-3-3-3---3-3---------|
   1 + 2 + 3 + 4 + 1 + 2 + 3 + 4 + 1 + 2 + 3 + 4 + 1 + 2 + 3 + 4 +

1:03
G|-----------------------------------------------------------------|
D|-----7---7-------------------------------------------------------|
A|-5-----5---5-5-4-3-3-2-2-----------------------------------------|
E|-------------------------3-3-3-3-\---\---------------------------|
   1 + 2 + 3 + 4 + 1 + 2 + 3 + 4 + 1 + 2 + 3 + 4 + 1 + 2 + 3 + 4 +

G|-----------------------5-----------------------------------------|
D|---------------------2-----------------5---------------------4-5-|
A|-0-0-0-0-0-0---0---0-----0-2-------------5-------------2-4-5-----|
E|---------------------------------3-3-3-----5-3-----3-5-----------|
   1 + 2 + 3 + 4 + 1 + 2 + 3 + 4 + 1 + 2 + 3 + 4 + 1 + 2 + 3 + 4 +

Verse 1:16
G|---------------------------------------------2-4-------------9-7-|
D|-------------------------------------------4-------------5-7-----|
A|-5-5-5-5-5-5-5-5-4-4-4-4-5-7-5-4-2-2-2-2-2-------0-2-4-5---------|
E|-----------------------------------------------------------------|
   1 + 2 + 3 + 4 + 1 + 2 + 3 + 4 + 1 + 2 + 3 + 4 + 1 + 2 + 3 + 4 +

G|-------------------------------------2---------------------------|
D|-----5-----5-------5---5---5---5---2---2---2---2---------0-2-5-7-|
A|---5---5-----5-------5-----------0-------0---0---0-2-0-2---------|
E|-3-------3-----5-3-------3---3-----------------------------------|
   1 + 2 + 3 + 4 + 1 + 2 + 3 + 4 + 1 + 2 + 3 + 4 + 1 + 2 + 3 + 4 +

G|-----------------------------------------------------------------|
D|-------------------------4---2-0---------------------------------|
A|-5--5--0-5---5-7-4--4--0---------2--2--0-2---4-5-0--0--5-0-5-4-5-|
E|-----------------------------------------------------------------|
   Triplet 3 + 4 + Triplet 3 + 4 + Triplet 3 + 4 + Triplet 3 + 4 +

G|-----------------------------------------------------------------|
D|-------------5-5-------------5-5-------------777-------------5-7-|
A|---------------------------------------------------------5-7-----|
E|-3--3--3-3-------3--3--3-3-------5--5--5-5-------5--5--5---------|
   Triplet 3 + 4 + Triplet 3 + 4 + Triplet 3 + 4 + Triplet 3 + 4 +

Pre Chorus 1:42
G|-------------------------------------------------11-11-11-12-11-12-11---------------------------|
D|-12-12-12-12-12-12----------12-12----12----12-14----------------------12-11-11-11---------------|
A|-------------------12-12-12-------12----12----------------------------------------12-10-8-10-12-|
E|------------------------------------------------------------------------------------------------|
   1  +  2  +  3  +  4  +  1  +  2  +  3  +  4  +  1  +  2  +  3  +  4  +  1  +  2  +  3  + 4  + 

G|-------------------------------------------------11-11-11-12-11-11-11-12-11-11-11-11-11-------|
D|-12-12-12----12-12----------12-12----12----12-14----------------------------------------------|
A|----------12-------12-12-12-------12----12----------------------------------------------------|
E|----------------------------------------------------------------------------------------------|
   1  +  2  +  3  +  4  +  1  +  2  +  3  +  4  +  1  +  2  +  3  +  4  +  1  +  2  +  3  + 4 + 

Chorus 1:55
G|-------------------------------------9-7-----9-7-----------------|
D|-----7---------------------------------------------------------5-|
A|-5-5---5-5-5-5-4-3-3-2-2-----------------------------------5-7---|
E|-------------------------3-3-3-3-/-------------------------------|
   1 + 2 + 3 + 4 + 1 + 2 + 3 + 4 + 1 + 2 + 3 + 4 + 1 + 2 + 3 + 4 +

G|-----------------------------------------------------------------|
D|---------5-7-----------0-2-------------5-----------------5-7-5-4-|
A|-0-0-0-0-----0-0-0-0-0-----2-------------5-------------5---------|
E|---------------------------------3-3-3-----5-3---3-3-3-----------|
   1 + 2 + 3 + 4 + 1 + 2 + 3 + 4 + 1 + 2 + 3 + 4 + 1 + 2 + 3 + 4 +

G|-----------------------------------------------------------------|
D|-----7---7-------------------------------------------------------|
A|-5-----5---5-5-4-3-3-2-2-----------------------------------------|
E|-------------------------3-3-3-3-/---\---------------------------|
   1 + 2 + 3 + 4 + 1 + 2 + 3 + 4 + 1 + 2 + 3 + 4 + 1 + 2 + 3 + 4 +

G|-----------------------5---------------------------5-4-----------|
D|---------------------2---------------------------------5-4-2-0-2-|
A|-0-0-0-0-----0-----0-----0-2---2-3-3-3-3-----3-------------------|
E|-----------------------------------------------------------------|
   1 + 2 + 3 + 4 + 1 + 2 + 3 + 4 + 1 + 2 + 3 + 4 + 1 + 2 + 3 + 4 +

Bridge 2:20
G|-------------------------------------------------5---5-4-5-4-----|
D|-3---3---3---3---3---3---3---3-/-7---7---7---7---------------5-4-|
A|-----------------------------------------------------------------|
E|-----------------------------------------------------------------|
   1 + 2 + 3 + 4 + 1 + 2 + 3 + 4 + 1 + 2 + 3 + 4 + 1 + 2 + 3 + 4 +

G|---------------------------------|
D|-----0-0-0-0-0-0-----------------|
A|---------------------------------|
E|----------------------------/-\--|
   1 + 2 + 3 + 4 + 1 + 2 + 3 + 4 + 

G|-----------------------------------------------------------------|
D|-------------------------------------------------3---3---3-5-3-0-|
A|-----------------0---0---0---0---3---3---3-0-3-0-----------------|
E|-1---1---1---1-------------3---3---------------------------------|
   1 + 2 + 3 + 4 + 1 + 2 + 3 + 4 + 1 + 2 + 3 + 4 + 1 + 2 + 3 + 4 +

G|-----777-----666-----444-----222-------------------------7-------|
D|-------------------------------------555-----777-------57--------|
A|-5-5-----4-4-----2-2-----0-0---------------------545457----------|
E|---------------------------------3-3-----5-5---------------------|
   1 + 2 + 3 + 4 + 1 + 2 + 3 + 4 + 1 + 2 + 3 + 4 + 1 + 2 + 3 + 4 +

Chorus 2:43
G|-------------------------------------9-7-----9-7-----------------|
D|---------------------------------------------------------------5-|
A|-----------------3-3-2-2-----------------------------------5-7---|
E|-------------------------3-3-3-3-/-------------------------------|
   1 + 2 + 3 + 4 + 1 + 2 + 3 + 4 + 1 + 2 + 3 + 4 + 1 + 2 + 3 + 4 +

G|-----------------------------------------------------------------|
D|---------5-7-----------0-2-0-2-5-------5-----------5---5-5-7-5-4-|
A|-0-0-0-0-----0---0-0-0-------------------5-----------5-----------|
E|---------------------------------3---3-----5-3---3---------------|
   1 + 2 + 3 + 4 + 1 + 2 + 3 + 4 + 1 + 2 + 3 + 4 + 1 + 2 + 3 + 4 +

G|-----------------------------------------------------------------|
D|-----7---7-------------------------------------------------5-----|
A|-5-----5---5-5-4-3-3-2-2-------------------------------------7-5-|
E|-------------------------3-3-3-3-/---\---------------------------|
   1 + 2 + 3 + 4 + 1 + 2 + 3 + 4 + 1 + 2 + 3 + 4 + 1 + 2 + 3 + 4 +

G|-----------------------5-----------------------------------------|
D|---------------------2-------------------------------------------|
A|-0-0-0-0-----0-----0-----0-2---2-3-3-3-3-3-3-3-3-3-3-3-3-3-3-3-3-|
E|-----------------------------------------------------------------|
   1 + 2 + 3 + 4 + 1 + 2 + 3 + 4 + 1 + 2 + 3 + 4 + 1 + 2 + 3 + 4 +

G|---------------------------9-7-\-|
D|-2-2-2-4-4-4-5-5-5-7-7-7-7-------|
A|---------------------------------|
E|---------------------------------|
   1 + 2 + 3 + 4 + 1 + 2 + 3 + 4 + 

Outro 3:12
G|-----------------------------------------------------------------|
D|-0---0-0-0-2-4-2-------------------------------------------------|
A|-----------------4---4-4-4-5-7-5-2---2-4-5-4-5-4-0---0-2-4-5-4-2-|
E|-----------------------------------------------------------------|
   1 + 2 + 3 + 4 + 1 + 2 + 3 + 4 + 1 + 2 + 3 + 4 + 1 + 2 + 3 + 4 +

G|-----------------------------------------------------------------|
D|---------------------5---------------------5-4---------------5-7-|
A|-------------------5---5---5-------------------5-0-0-2-4-5-7-----|
E|-3---3-3-3-3-3-3-3-------3---3-2-0---0-0-0-----------------------|
   1 + 2 + 3 + 4 + 1 + 2 + 3 + 4 + 1 + 2 + 3 + 4 + 1 + 2 + 3 + 4 +

G|-----------------------------------------------------------------|
D|-------------------------4---------------------------------------|
A|-5---5-0-5-5-7-7-4---4-7---7-5-4-2---2-4-5-5-7-5-0--0--4-5--4--2-|
E|-----------------------------------------------------------------|
   1 + 2 + 3 + 4 + 1 + 2 + 3 + 4 + 1 + 2 + 3 + 4 + Triplet Triplet 

G|-----------------------------------------------------------------|
D|-------------------------------2-----------------------------5-7-|
A|-------------2---2-------2-4-5---0-----------4-----0---0-5-7-----|
E|-3-----------------3-3-------------------------------------------|
   1 + 2 + 3 + 4 + 1 + 2 + 3 + 4 + 1 + 2 + 3 + 4 + 1 + 2 + 3 + 4 +

G|-------------------------------------------7---7-----------------|
D|-------------2---4-------2-------5--7--5-4-----------------------|
A|-0-------2-4-----------------------------------------------------|
E|-----------------------------------------------------------------|
   1 + 2 + 3 + 4 + 1 + 2 + 3 + 4 + Triplet 3 + 4 + 1 + 2 + 3 + 4 +

G|---------------------------------------------------------------------|
D|---------------------------------------------------------------------|
A|-5-----------------------------------------------------12-10-8-10-12-|
E|---------------------------------------------------------------------|
   1 + 2 + 3 + 4 + 1 + 2 + 3 + 4 + 1 + 2 + 3 + 4 + 1 + 2 +  3  + 4  +

3:50 Repeat Fading Out
G|-------------------------------------------------11-11-11-12-11-12-11---------------------------|
D|-12-12-12----12-12----------12-12----12----12-14----------------------12-11-11-11---------------|
A|----------12-------12-12-12-------12----12----------------------------------------12-10-8-10-12-|
E|------------------------------------------------------------------------------------------------|
   1  +  2  +  3  +  4  +  1  +  2  +  3  +  4  +  1  +  2  +  3  +  4  +  1  +  2  +  3  + 4  + 

Tabbed by Dave Vucko

            
            
Suggest correction
Creating personal tab
Creating personal tab
You can edit any tab online and save it as your Personal.

You can edit, replace or remove any tab part or add personal notes – all changes will be seen only by you.

Personal tabs can be accessed anytime from any device, even offline.
Learn more »
Give kudos to tab author, rate the tab!
1 2 3 4 5
comments
print report bad tab
4 comments total. Showing first comments.
0 reply
PalaceInFlames 20 Oct 13, 2013 12:47 AM

Hey, I'm kinda new to bass and was just wondering what '+' and 'triplet' on the bottom means?

Great tab,
Many thanks,
PalaceInFlames

0 reply
Teh D Bot 11,992 Oct 13, 2013 08:43 AM

the things on the bottom are how to count the notes '+' refers to the 'and' of a note, as in 1 and 2 and 3 and 4 and. triplet's are playing 3 notes in the space of two

0 reply
PalaceInFlames 20 Oct 13, 2013 11:11 AM

Thank you very much(:

I was also wondering if you were going to tab out any other FVK songs?

Many thanks once again,
PalaceInFlames

guest
You may want to rate the tab now too:
select rating
Wanna post a correction for this tab? Suggest correction