Oops, an error
Loading. Please wait.

The Prince Diamond Dust And Crimson Reign bass

844 views 1 this week
no commentswrite comment
1 2 3 4 5
1 last vote to show rating
add to favorites
×
Save as Personal and add changes to this tab that will be seen only by you. Learn more ›
×
You can save this tab as Personal to edit and correct it or add notes. All changes will be seen only by you. Learn more »
launch autoscroll
font size
0
reset
guitar tuner
edit
Autoscroll
slow
fast
+/-
esc
set tempo
stop
Author
Difficulty
G|-----------------------------------------------------------------|
D|-0-0---------0-0---------0-0-------------------------0---2---2---|
A|---------------------------------3-3---------3-3-3---------3---3-|
E|-----------------------------------------------------------------|
   1 + 2 + 3 + 4 + 1 + 2 + 3 + 4 + 1 + 2 + 3 + 4 + 1 + 2 + 3 + 4 +

G|-----------------------------------------------------------------|
D|-----3---3-3-----3---3-3-----3-5-----2---2-2-----2---------------|
A|-------3-----------3-------------------2-----------2-------------|
E|-1-1---------1-1---------1-1-----0-----------0-------0-/-/-12-\--|
   1 + 2 + 3 + 4 + 1 + 2 + 3 + 4 + 1 + 2 + 3 + 4 + 1 + 2 + 3 + 4 +

G|-----------------------------------------------------------------|
D|-1-1-1-1-1-1-1-1-1-1-1-1-1-1-1-1-----------------3-3-3-3-3-1-0---|
A|---------------------------------3-3-3-3-3-3-3-3---------------3-|
E|-----------------------------------------------------------------|
   1 + 2 + 3 + 4 + 1 + 2 + 3 + 4 + 1 + 2 + 3 + 4 + 1 + 2 + 3 + 4 +

G|-----------------------------------------------------------------|
D|-----------------------------------3-1-0-------------------------|
A|-1-1-1-1-1-1-1-1-1-1-1-1-1-1-1-1-1-------3-1-0-----------0-------|
E|-----------------------------------------------3-1---------------|
   1 + 2 + 3 + 4 + 1 + 2 + 3 + 4 + 1 + 2 + 3 + 4 + 1 + 2 + 3 + 4 +

Verse 0:19
G|---------7-------------------------------10--14t-----------------|
D|-----8-------15t---------------------12--------------------------|
A|-----------------------------------------------------------------|
E|-6-------------------------------10------------------------------|
   1 + 2 + 3 + 4 + 1 + 2 + 3 + 4 + 1 + 2 + 3 + 4 + 1 + 2 + 3 + 4 +


G|---------7-------------------------------10--14t----/15-\14-p10--|
D|-----8-------15t---------------------12--------------------------|
A|-----------------------------------------------------------------|
E|-6-------------------------------10------------------------------|
   1 + 2 + 3 + 4 + 1 + 2 + 3 + 4 + 1 + 2 + 3 + 4 + 1 + 2 + 3 + 4 +

G|---------7-------------------------------10--14t-----------------|
D|-----8-------15t---------------------12--------------------------|
A|-----------------------------------------------------------------|
E|-6-------------------------------10------------------------------|
   1 + 2 + 3 + 4 + 1 + 2 + 3 + 4 + 1 + 2 + 3 + 4 + 1 + 2 + 3 + 4 +

G|---------7-------------------------------12--12--------------------|
D|-----8-------15t---------------------13----------------------------|
A|-------------------------------------------------------------6-6h8-|
E|-6-------------------------------11--------------------------------|
   1 + 2 + 3 + 4 + 1 + 2 + 3 + 4 + 1 + 2 + 3 + 4 + 1 + 2 + 3 + 4 +

Pre Chorus
G|-----------------------------------------------------------------|
D|-----------------------------------------5---8---7-------5-------|
A|-5---5---5---6---5---3---1---0-------5---------------8-------5---|
E|---------------------------------3-------------------------------|
   1 + 2 + 3 + 4 + 1 + 2 + 3 + 4 + 1 + 2 + 3 + 4 + 1 + 2 + 3 + 4 +

G|-----------------------------------------------------------------|
D|-----------------5---7---8---------------------------------------|
A|-6---6---6---8---------------6---5-------5---5h6-5-5-5h6-5-3-3-1-|
E|-----------------------------------------------------------------|
   1 + 2 + 3 + 4 + 1 + 2 + 3 + 4 + 1 + 2 + 3 + 4 + 1 + 2 + 3 + 4 +

G|-----------------------------------------------------------------|
D|-----------------------------------------------------------------|
A|-----------------------------------------------------------------|
E|-3---3---3---3---3---3---3---3---3---\---------------------------|
   1 + 2 + 3 + 4 + 1 + 2 + 3 + 4 + 1 + 2 + 3 + 4 + 1 + 2 + 3 + 4 +

Chorus 0:54
G|----------------------------------------------------------------------|
D|-----10----10---/10-------8---7-8-7-----------------------------4-2---|
A|--------10----10------------8-------8-----3---3-1-3-5---------------4-|
E|-8--------------------6---------------1-----1---------2---2-----------|
   1 + 2  +  3  +  4  + 1 + 2 + 3 + 4 + 1 + 2 + 3 + 4 + 1 + 2 + 3 + 4 +

G|-------------7h8---------7-8-7-----------------------------------|
D|-----------------8---8---------8-----8---------------------------|
A|-----5-------------8---8-----------------------------------------|
E|-3-----3-------------------------6-----6-----6---1-------2-------|
   1 + 2 + 3 + 4 + 1 + 2 + 3 + 4 + 1 + 2 + 3 + 4 + 1 + 2 + 3 + 4 +

G|-----------------------------------------------------------------|
D|-----------7-8-------------8-9---------------8-7-5-5-------5-7-8-|
A|-6-6---6-6-----6-8-8---8-8-----8-9-9---9-9-9-------------8-------|
E|-----------------------------------------------------------------|
   1 + 2 + 3 + 4 + 1 + 2 + 3 + 4 + 1 + 2 + 3 + 4 + 1 + 2 + 3 + 4 +

G|------------------------------------------------------------------|
D|--------------------------8-----------------------7-7-7-7-7-7-7-7-|
A|-6-----------6-------8h10-----6---5-----------5h7-----------------|
E|------------------------------------------------------------------|
   1 + 2 + 3 + 4 + 1 + 2 +  3 + 4 + 1 + 2 + 3 + 4 + 1 + 2 + 3 + 4 +

Verse 1:15
G|-----------------------------------------------------------------|
D|-----------------------------------------------------------------|
A|-1-----1-----1-----1-----1---1---5-----5-----5-----5-----5-5-5-5-|
E|-----------------------------------------------------------------|
   1 + 2 + 3 + 4 + 1 + 2 + 3 + 4 + 1 + 2 + 3 + 4 + 1 + 2 + 3 + 4 +

G|-----------------------------------------------------------------|
D|---------------------------------------------------8-8-8-8-8-8-8-|
A|-1-----2-----3-----4-----5-6-5-3-5-----6-----7-------------------|
E|-----------------------------------------------------------------|
   1 + 2 + 3 + 4 + 1 + 2 + 3 + 4 + 1 + 2 + 3 + 4 + 1 + 2 + 3 + 4 +

Pre Chorus 1:25
G|-----------------------------------------------------------------|
D|-0---0-0---0-3-3-3-3-3-5-3-0-------------------------------------|
A|-----------------------------3-1---------------------------------|
E|---------------------------------3--3--3---------1--1--1---------|
   1 + 2 + 3 + 4 + 1 + 2 + 3 + 4 + Triplet 3 + 4 + Triplet 3 + 4 +

G|---------------------------------------------------------6-7-6---|
D|-1---1---1-0-3-5---5-5-5-5-3-------------------4-4-4-4-4-------8-|
A|-----------------------------6-6-5---5-5-5-5-5-------------------|
E|-----------------------------------------------------------------|
   1 + 2 + 3 + 4 + 1 + 2 + 3 + 4 + 1 + 2 + 3 + 4 + 1 + 2 + 3 + 4 +

G|---------------------------------------------------------------------|
D|-5---4---3---2---1---0-----------------------------------9h10p9------|
A|-------------------------3---0----------------------------------10-8-|
E|---------------------------------3----/--15--\-----------------------|
   1 + 2 + 3 + 4 + 1 + 2 + 3 + 4 + 1 + 2 + 3 + 4 + 1 + 2 + 3    + 4  +

Chorus 1:40
G|----------------------------------------------------------------------|
D|-----10----10---/10-------8---7-8-7-----------------------------4-2---|
A|--------10----10------------8-------8-----3---3-1-3-5---------------4-|
E|-8--------------------6---------------1-----1---------2---2-----------|
   1 + 2  +  3  +  4  + 1 + 2 + 3 + 4 + 1 + 2 + 3 + 4 + 1 + 2 + 3 + 4 +

G|-------------7h8---------7-8-7-----------------------------------|
D|-----------------8---8---------8-----8---------------------------|
A|-----5-------------8---8-----------------------------------------|
E|-3-----3-------------------------6-----6-----6---1-------2-------|
   1 + 2 + 3 + 4 + 1 + 2 + 3 + 4 + 1 + 2 + 3 + 4 + 1 + 2 + 3 + 4 +

G|-----------------------------------------------------------------|
D|-----------7-8-------------8-9---------------8-7-5-5-------5-7-8-|
A|-6-6---6-6-----6-8-8---8-8-----8-9-9---9-9-9-------------8-------|
E|-----------------------------------------------------------------|
   1 + 2 + 3 + 4 + 1 + 2 + 3 + 4 + 1 + 2 + 3 + 4 + 1 + 2 + 3 + 4 +

G|-----------------------------------------------------------------|
D|-----------/-5-----8---------5-3-----------------7-7-7-7-7-7-7-7-|
A|-6-------------------------------5-----------5h7-----------------|
E|-----------------------------------------------------------------|
   1 + 2 + 3 + 4 + 1 + 2 + 3 + 4 + 1 + 2 + 3 + 4 + 1 + 2 + 3 + 4 +

Interlude 2:00
G|-----------------------------------------------------------------|
D|-----------------------------------------------------------------|
A|-----------------------------------------------------------------|
E|-6------------------------------p5---------------5-5-----5-5-\---|
   1 + 2 + 3 + 4 + 1 + 2 + 3 + 4 + 1 + 2 + 3 + 4 + 1 + 2 + 3 + 4 +

Bridge 2:05
G|-----------------------------------------------------------------|
D|-----------------------------------------------------------------|
A|-----------------------------------------------------------------|
E|-1---1-1-1---1---1---5---5---1---2---2-2-2---2---5---5---5---4---|
   1 + 2 + 3 + 4 + 1 + 2 + 3 + 4 + 1 + 2 + 3 + 4 + 1 + 2 + 3 + 4 +

G|-----------------------------------------------------------------|
D|-------------3h5-----5---5-3-------------------------------------|
A|---------3h5-----------------5-3-5-----3-----5-----3-----5---3-5-|
E|-3---3-----------------------------3-3---3-3---3-3---3-3---3-----|
   1 + 2 + 3 + 4 + 1 + 2 + 3 + 4 + 1 + 2 + 3 + 4 + 1 + 2 + 3 + 4 +

G|-----------------------------------------------------------------|
D|-----------------------------------------------------------------|
A|-8---\-----------------------------------------------------------|
E|---------------------------------2---2---2---2---2---5---5---2---|
   1 + 2 + 3 + 4 + 1 + 2 + 3 + 4 + 1 + 2 + 3 + 4 + 1 + 2 + 3 + 4 +

G|-----------------------------------------------------------------|
D|-----------------------------------------------------------------|
A|---------5---3-5---------7---5-7---------8---6-8-6-6-6-6-6-8-6-5-|
E|-3-3-3-3---3-----5-5-5-5---5-----6-6-6-6---6---------------------|
   1 + 2 + 3 + 4 + 1 + 2 + 3 + 4 + 1 + 2 + 3 + 4 + 1 + 2 + 3 + 4 +

2:25
G|-----------------------------------------3-----------------------|
D|-----------------------------------------------------------------|
A|-6-------6-----------6---8---6---1---------1---------------------|
E|-----------------------------------------------------------------|
   1 + 2 + 3 + 4 + 1 + 2 + 3 + 4 + 1 + 2 + 3 + 4 + 1 + 2 + 3 + 4 +

G|-------------------------------------------------2---3---2-0-----|
D|-----3---3-------------------------------0---3---------------3-0-|
A|---3---3-----3-------------------1---3---------------------------|
E|-1---------------------------------------------------------------|
   1 + 2 + 3 + 4 + 1 + 2 + 3 + 4 + 1 + 2 + 3 + 4 + 1 + 2 + 3 + 4 +

G|---------8---12t-----p8------------------------------------------|
D|-----8-----------------------------------8---12t-----------------|
A|-6-----------------------------------8---------------------------|
E|---------------------------------6---------------------------6-\-|
   1 + 2 + 3 + 4 + 1 + 2 + 3 + 4 + 1 + 2 + 3 + 4 + 1 + 2 + 3 + 4 +

Pre Chorus
G|-----------------------------------------------------------------|
D|-----------------------------------------------------------------|
A|---------------------------------------------------------1-0-----|
E|-1---1---1---1---1---1---1---1---2---2---2---2---2---2-------3-1-|
   1 + 2 + 3 + 4 + 1 + 2 + 3 + 4 + 1 + 2 + 3 + 4 + 1 + 2 + 3 + 4 +

G|---------------------------------------------------------------------------------|
D|-5---4---3---2---1-----0---------------------------------------------------------|
A|-----------------------------3---------------------------------------------------|
E|---------------------------------3---3---3---3---6---\---3---/---15-p13--13-p11--|
   1 + 2 + 3 + 4 + 1 + 2 + 3 + 4 + 1 + 2 + 3 + 4 + 1 + 2 + 3 + 4 + 

Rest 

Chorus 2:58
G|-----------------------------------------------------------------|
D|-----------------------------------------------------------------|
A|-----------------------------------------------------------------|
E|-3---3---3---3---0---0---0---0---6---\---------------------------|
   1 + 2 + 3 + 4 + 1 + 2 + 3 + 4 + 1 + 2 + 3 + 4 + 1 + 2 + 3 + 4 +

3:02
G|-----7---5---5h7-----5---5-4-3-----------------------------------|
D|-------------------------------5-----5---3---3h5-----6---6-------|
A|-5-5---5---5-----3-3---3-----------------------------------------|
E|---------------------------------3-3---3---3-----4-4---4---4-3-4-|
   1 + 2 + 3 + 4 + 1 + 2 + 3 + 4 + 1 + 2 + 3 + 4 + 1 + 2 + 3 + 4 +

G|---------------------10---10-8-------------------------------------------|
D|-----7---5---------------------10-8--------10------10--------6-----------|
A|-----------------8-8----8---------------10------10----10-----------------|
E|-5-5---5---5-5-5--------------------8-8------------------4-4---4-5-5-5-5-|
   1 + 2 + 3 + 4 + 1 + 2  + 3  + 4  + 1 + 2  +  3 +  4  +  1 + 2 + 3 + 4 +

3:12Outro
G|-----------------------------------------------------------------|
D|-----------3---------------5---------------6-----------------0-1-|
A|---------3-----3---------5-----5---------6-----6-0-0-0-0-3-3-----|
E|-1-1---1---------3-3---3---------4-4---4-------------------------|
   1 + 2 + 3 + 4 + 1 + 2 + 3 + 4 + 1 + 2 + 3 + 4 + 1 + 2 + 3 + 4 +

G|-------------------------5---------------------------------------|
D|-3-----------3-------5h7-----3---2--------------/6-6-6-6-6-6-6-6-|
A|-----------------------------------------------------------------|
E|-----------------------------------------------------------------|
   1 + 2 + 3 + 4 + 1 + 2 + 3 + 4 + 1 + 2 + 3 + 4 + 1 + 2 + 3 + 4 +

3:22
G|-----------------------------------------------------------------|
D|-----------------------------------------------------------------|
A|-----3-2-0-------3-2-0-------3-------3-2-0-------3-2-0-------3-/-|
E|-0-----------0-----------0-------0-----------0-----------0-------|
   1 + 2 + 3 + 4 + 1 + 2 + 3 + 4 + 1 + 2 + 3 + 4 + 1 + 2 + 3 + 4 +

G|---------------------------------------------------------------------|
D|---------------------------------------------------------------------|
A|-12---15-14-12-------3-2-0-------3-----------------------------------|
E|-----------------0-----------0-------5---\---------------------------|
   1  + 2  +  3  + 4 + 1 + 2 + 3 + 4 + 1 + 2 + 3 + 4 + 1 + 2 + 3 + 4 +
Tabbed by Dave Vucko


            
            
Suggest correction
Creating personal tab
Creating personal tab
You can edit any tab online and save it as your Personal.

You can edit, replace or remove any tab part or add personal notes – all changes will be seen only by you.

Personal tabs can be accessed anytime from any device, even offline.
Learn more »
Give kudos to tab author, rate the tab!
1 2 3 4 5
comments
print report bad tab
guest
You may want to rate the tab now too:
select rating
Wanna post a correction for this tab? Suggest correction