Oops, an error
Loading. Please wait.

The Thief Merchants Of Decay bass

605 views 1 this week
2 commentsread comments
1 2 3 4 5
1 last vote to show rating
add to favorites
×
Save as Personal and add changes to this tab that will be seen only by you. Learn more ›
×
You can save this tab as Personal to edit and correct it or add notes. All changes will be seen only by you. Learn more »
launch autoscroll
font size
0
reset
guitar tuner
edit
Autoscroll
slow
fast
+/-
esc
set tempo
stop
Author
Difficulty
0:20
G|-----------------------------------------------------------------|
D|-----------------------------------------------------------------|
A|-0-0-0-0-0-0-0-0-0-0-0-0-0-0-0-0-0-0-0-0-0-0-0-0-0-0-2-2-3-3-5-5-|
E|-----------------------------------------------------------------|
   1 e + a 2 e + a 3 e + a 4 e + a 1 e + a 2 e + a 3 e + a 4 e + a 

G|-----------------------------------------------------------------|
D|-----------------------------------------5-5-7-7-5-5-7-7-9-9-5-5-|
A|-3-3-5-5-6-6-7-7-5-5-6-6-7-7-8-8-7-7-8-8-------------------------|
E|-----------------------------------------------------------------|
   1 e + a 2 e + a 3 e + a 4 e + a 1 e + a 2 e + a 3 e + a 4 e + a 

Verse 0:29
G|-----------------------------------------------------------------|
D|-----------------------------------------------------------------|
A|-0---0---0---0-0-------------------------------------------------|
E|-----------------1---1---1---1---3---3---3---3---3---3---3---3---|
   1 e + a 2 e + a 3 e + a 4 e + a 1 e + a 2 e + a 3 e + a 4 e + a 

G|-----------------------------------------------------------------|
D|-----------------------------------------------------------------|
A|-------------------------------------------------2-------3-------|
E|-0---0---0---0---1---1---1---1---3---3---3---3-----3-------3-----|
   1 e + a 2 e + a 3 e + a 4 e + a 1 e + a 2 e + a 3 e + a 4 e + a 

0:38
G|-----------------------------------------------------------------|
D|----------------------3--------------5---------------5-----------|
A|-0-0-0---0---0-0---------3---------------5---5-3---------5---3-5-|
E|-----------------1-----------1-1-3---------------3---------------|
   1 e + a 2 e + a 3 e + a 4 e + a 1 e + a 2 e + a 3 e + a 4 e + a 

G|-----------------------------------------------------------------|
D|-----2-------------------3-----------5---------------------------|
A|---------2-----------3-------3-----------5-------3---2-----------|
E|-0-----------0-0-1---------------3-----------3-----------3---0---|
   1 e + a 2 e + a 3 e + a 4 e + a 1 e + a 2 e + a 3 e + a 4 e + a 

0:47
G|-----------------------------------------------------------------------|
D|-----------9h10------9-------9h10-12--------------9-10-9----10-9-------|
A|-0-------------------------------------------------------12------12-10-|
E|-----------------------------------------------------------------------|
   1 e + a 2 e + a 3 e + a 4 e + a  1 e + a 2 e + a 3 e  + a  4 e +  a 

G|----------------------------14---------------------------14-14-14-14-14-14-14-|
D|-----------12h14-------12--------12---14--------------------------------------|
A|-0------------------------------------12--------------------------------------|
E|------------------------------------------------------------------------------|
   1 e + a 2 e  +  a 3 e +  a 4  e +  a 1  e + a 2 e + a 3 e  +  a  4  e  +  a 

0:56
G|-14----------------------------------------------------------------|
D|------------------------------------------5-----7---5---4---------|
A|----------------------3-5-3-2-0-------5-----5-5-----------5---5-6-|
E|----------------1---1-----------3-3-------------------------------|
   1  e + a 2 e + a 3 e + a 4 e + a 1 e + a 2 e + a 3 e + a 4 e + a 

1:01
G|-----------------------------------------------------------------|
D|-----------------------------------------------------------------|
A|-7-----------------3---5-3-2-0-------------------2-----3-------0-|
E|-----0---0-0-0-1---------------3-3---3-3-3-3-3-3---3-------3-----|
   1 e + a 2 e + a 3 e + a 4 e + a 1 e + a 2 e + a 3 e + a 4 e + a 

G|-----------------------------------------------------------------|
D|-----2---0-------------------------------5-----7---5---4---------|
A|---0-------3-2-------3-5-3-2-0-------5-----5-5-----------5-5-5-6-|
E|---------------1---1-----------3-3-------------------------------|
   1 e + a 2 e + a 3 e + a 4 e + a 1 e + a 2 e + a 3 e + a 4 e + a 

G|-----------------------------------------------------------------|
D|-----------------------------------------------------------------|
A|-7-----------------3---5-3-2-0-------------------2-----3-------0-|
E|-----0---0-0-0-1---------------3-3---3-3-3-3-3-3---3-------3-----|
   1 e + a 2 e + a 3 e + a 4 e + a 1 e + a 2 e + a 3 e + a 4 e + a 

1:15
G|-----2---0-------------------------------------------------------|
D|-----------2-0---------------------------------------------------|
A|---0-----------3-------------------------------------------------|
E|-----------------1---1---1---1---3---3---3---3---3---3---3---3---|
   1 e + a 2 e + a 3 e + a 4 e + a 1 e + a 2 e + a 3 e + a 4 e + a 

G|-----------------------------------------------------------------|
D|-----------------------------------------------------------------|
A|-------------------------------------------------2-------3-------|
E|-0---0---0---0---1---1---1---1---3---3---3---3-----3-------3-/---|
   1 e + a 2 e + a 3 e + a 4 e + a 1 e + a 2 e + a 3 e + a 4 e + a 

1:24
G|-----------------------------------------------------------------|
D|-----2-----------------------------------5-----7---5-4-5---------|
A|-0-------3-2---------3-5-3-2-0-------5-----5-5-----------5-5-5-6-|
E|---------------1-1-------------3-3-------------------------------|
   1 e + a 2 e + a 3 e + a 4 e + a 1 e + a 2 e + a 3 e + a 4 e + a 

G|----------------------------------|
D|----------------------------------|
A|-7--------------------------------|
E|-----0---0-/-12-\-5-------3-------|
   1 e + a 2 e +  a 3 e + a 4 e + a 

1:32
G|------------------------------------------------------------9-10-9----|
D|---------3---------------2-3-2-----------9-10-9--------------------10-|
A|-----3-------3-2-----2---------3-0---7----------10-----10-------------|
E|-1---------------0---------------------------------8------------------|
   1 e + a 2 e + a 3 e + a 4 e + a 1 e + a 2 e  + a  3 e +  a 4 e  + a 

G|-------------------------------------------------------------------|
D|---------5-7-5-7---------7-9-7-----------9-10-9--------------------|
A|-----3---------------5---------9-0---7----------10-----------------|
E|-1---------------3---------------------------------3-3-3-3-5-5-5-5-|
   1 e + a 2 e + a 3 e + a 4 e + a 1 e + a 2 e  + a  3 e + a 4 e + a 

1:40
G|-----------------------------------------------------------------|
D|---------------------------------------------2-----2-0-----------|
A|-------------------------0-2-3-3-----------------------3-2-0-----|
E|-1-----------1-------1-----------0---------------------------3-0-|
   1 e + a 2 e + a 3 e + a 4 e + a 1 e + a 2 e + a 3 e + a 4 e + a 

1:45
G|-----------------------------------------------------------------|
D|-----------------------------------------------------------------|
A|-----------------------------------------------------------------|
E|-5---\-----------------------0-0-5---\---------------------------|
   1 e + a 2 e + a 3 e + a 4 e + a 1 e + a 2 e + a 3 e + a 4 e + a 

G|---------------------------------|
D|-----------------5---------------|
A|-------------5-------3---5-------|
E|-3-------3-----------------------|
   1 e + a 2 e + a 3 e + a 4 e + a  

1:52
G|-----------------------------------------------------------------|
D|---------2-2-2-2---------3-3---------5-------5-------------------|
A|-------2---------------3-----3-2---------------------------------|
E|-0-0-0-----------1-1-1-----------3-----3-3-3---3-3-3-3-3-3-3-4---|
   1 e + a 2 e + a 3 e + a 4 e + a 1 e + a 2 e + a 3 e + a 4 e + a 

1:57
G|-----------------------------------------------------------------|
D|---------2-0-----------------------------5---5-6-----------------|
A|-0-----0-----3-------3-2-3-5-5-------------5---------7---5-6-7---|
E|---------------0-1---------------3-------------------------------|
   1 e + a 2 e + a 3 e + a 4 e + a 1 e + a 2 e + a 3 e + a 4 e + a 

G|-------------------------------------------------------------------------|
D|---------2-0-------------------------------------------------------------|
A|-0-----------3-2-----3---3-5-5-------------------------------------------|
E|-----------------1---------------3-3-3-3-3-3-3-3/15-15-15-15-15-15-15-15-|
   1 e + a 2 e + a 3 e + a 4 e + a 1 e + a 2 e + a 3  e  +  a  4  e  +  a 

2:06
G|------------------------------------------------------------9-10-9----|
D|-------------------------2-3-2-----------9-10-9--------------------10-|
A|---------------------2---------3-0---7----------10-----10-------------|
E|-13--\---1---1---0---------------------------------8------------------|
   1 e + a 2 e + a 3 e + a 4 e + a 1 e + a 2 e  + a  3 e +  a 4 e  + a 

G|-------------------------------------------------------------------|
D|---------5-7-5-7---------7-9-7-----------9-10-9--------------------|
A|-----3---------------5---------9-0---7----------10-----------------|
E|-1---------------3---------------------------------3-3-3-3-5-5-5-5-|
   1 e + a 2 e + a 3 e + a 4 e + a 1 e + a 2 e  + a  3 e + a 4 e + a 

2:15
G|-----------------------------------------------------------------|
D|-------------3---------3-3-5-3---------------2---------------/---|
A|---------------------3---------3---------------------------------|
E|-1-------------------------------0-------------------------------|
   1 e + a 2 e + a 3 e + a 4 e + a 1 e + a 2 e + a 3 e + a 4 e + a 

G|-----------------------------------------------------------------|
D|-6---6---6---6---6---6---6---6-----------------------------------|
A|---------------------------------0-------------------------------|
E|-----------------------------------------------------------------|
   1 e + a 2 e + a 3 e + a 4 e + a 1 e + a 2 e + a 3 e + a 4 e + a 
 
Rest

2:39
G|---------------------------------------------------------------------------------|
D|-2---0-----------------------------------1-------2-----------2-/-7---5-----------|
A|---------3---2---0-----------0---0---------------------------------------8---7---|
E|---------------------------------------------------------------------------------|
   3 e + a 4 e + a 1 e + a 2 e + a 3 e + a 4 e + a 1 e + a 2 e + a 3 e + a 4 e + a 

G|-----------------------------------------------------------------|
D|-------------------------7-------0---------------2---0-----------|
A|-6-----------6---6---------------------------------------3---2---|
E|-----------------------------------------------------------------|
   1 e + a 2 e + a 3 e + a 4 e + a 1 e + a 2 e + a 3 e + a 4 e + a 

2:49
G|-----------------------------------------------------------------|
D|-----7-7-5-7---------7-7-5-7---------7-7-5-7-----7---5-----------|
A|-0-----------0-0-0-----------5-7-0-----------0-0---------8---7---|
E|-----------------------------------------------------------------|
   1 e + a 2 e + a 3 e + a 4 e + a 1 e + a 2 e + a 3 e + a 4 e + a

G|-------------------------------------7-7-5-7---------------------|
D|-----7-7-5-7---------7-7-----5-7-0-------------------------------|
A|-5-----------7-7-5-------------------------------7---8---7---5---|
E|-----------------------------------------------------------------|
   1 e + a 2 e + a 3 e + a 4 e + a 1 e + a 2 e + a 3 e + a 4 e + a 
 
G|-----------------------------------------7-------13--------------|
D|-7---5-----------9---7---6-------6-------------------------------|
A|---------8---7---------------8-----------------------------------|
E|-----------------------------------------------------------------|
   1 e + a 2 e + a 3 e + a 4 e + a 1 e + a 2 e + a 3 e + a 4 e + a 

G|-13-----13-----13-----13-----13-------|
D|--------------------------------------|
A|--------------------------------------|
E|--------------------------------------|
   1  e + a  2 e +  a 3 e  + a 4  e + a 

3:06
G|------------------------------------------------------------9-10-9----|
D|-------------------------2-3-2-----------9-10-9--------------------10-|
A|---------------------2---------3-0---7----------10-----10-------------|
E|-1-1-1-1-0---0---0---------------------------------8------------------|
   1 e + a 2 e + a 3 e + a 4 e + a 1 e + a 2 e  + a  3 e +  a 4 e  + a 

G|---------------------------------7---------------------------------|
D|---------5-7-5-7---------7-9-7-9-----10---9----9-7-----------------|
A|-----3---------------5---------------------------------------------|
E|-1---------------3---------------------------------3-3-3-3-5-5-5-5-|
   1 e + a 2 e + a 3 e + a 4 e + a 1 e +  a 2 e  + a 3 e + a 4 e + a 

3:15
G|-----------------------------------------------------------------|
D|---------3---------------5---------------6-----------------------|
A|-------3---------------5---------------6-------------------------|
E|-1-----------1---3-----------3---4-----------4---5-------3-------|
   1 e + a 2 e + a 3 e + a 4 e + a 1 e + a 2 e + a 3 e + a 4 e + a 

3:20
G|---------------------------------|
D|---------3-----------------------|
A|-------3---------------0-----2---|
E|-1-----------1---3---------------|
   1 e + a 2 e + a 3 e + a 4 e + a  

3:22
G|-----------------------------------------------------------------|
D|-------------------------5-----------------------0---------------|
A|-3-------------------5h7-----7---2-------2---3-------3---2---3---|
E|-----------------------------------------------------------------|
   1 e + a 2 e + a 3 e + a 4 e + a 1 e + a 2 e + a 3 e + a 4 e + a 

G|-----------------------------------------------------------------|
D|-------------2-------0h2p0---------------------------------------|
A|-0-------0-------------------3---5-----------5-------5---5---5---|
E|-----------------------------------------------------------------|
   1 e + a 2 e + a 3 e + a 4 e + a 1 e + a 2 e + a 3 e + a 4 e + a 

G|-----------------------------------------------------------------|
D|-------------------------------/-6---6---6---6---6---6---6---6---|
A|-7---------------------------------------------------------------|
E|-----0---0---0---0---0---0---0-----------------------------------|
   1 e + a 2 e + a 3 e + a 4 e + a 1 e + a 2 e + a 3 e + a 4 e + a 

G|-----------------------------------------------------------------|
D|-7---7---7---7---3---3---3---5---7---\---------------------------|
A|---7---7---7---7---3---3---3---5---------------------------------|
E|-----------------------------------------------------------------|
   1 e + a 2 e + a 3 e + a 4 e + a 1 e + a 2 e + a 3 e + a 4 e + a 
Tabbed by Dave Vucko

            
            
Suggest correction
Creating personal tab
Creating personal tab
You can edit any tab online and save it as your Personal.

You can edit, replace or remove any tab part or add personal notes – all changes will be seen only by you.

Personal tabs can be accessed anytime from any device, even offline.
Learn more »
Give kudos to tab author, rate the tab!
1 2 3 4 5
comments
print report bad tab
2 comments total.
0 reply
PalaceInFlames 10 Nov 09, 2013 01:58 AM

This is awesome! Sorry for the questions, haha, but I was wondering if you would maybe consider playing the songs and filming it?

guest
You may want to rate the tab now too:
select rating
Wanna post a correction for this tab? Suggest correction