Oops, an error
Loading. Please wait.

The Vigilante Death Or Disgrace bass

1,480 views 1 this week
3 commentsread comments
1 2 3 4 5
1 last vote to show rating
add to favorites
×
Save as Personal and add changes to this tab that will be seen only by you. Learn more ›
×
You can save this tab as Personal to edit and correct it or add notes. All changes will be seen only by you. Learn more »
launch autoscroll
font size
0
reset
guitar tuner
edit
Autoscroll
slow
fast
+/-
esc
set tempo
stop
Author
Difficulty

G|-----------------------------------------------------------------------------------------|
D|-----------------4-4-4-4-4-4-4-4-4-3-3-3-------------------------------------------------|
A|-1-------3---4---------------------------------------------------------------------------|
E|-----------------------------------------0-----------------------------------------------|
   1 + 2 + 3 + 4 + Tripl Tripl Tripl Tripl 1 + 2 + 3 + 4 + 1 + 2 + 3 + 4 + 1 + 2 + 3 + 4 +

Verse 0:07
G|-----------------------------------------------3-2---------------|
D|---------------------------3-2-------------------------2-3-------|
A|-1-----3-4-------------3-4-----3-1-----3-4-----------------3-4-0-|
E|---------------3-2--------------------------22-------------------|
   1 + 2 + 3 + 4 + 1 + 2 + 3 + 4 + 1 + 2 + Triplet 1 + 2 + 3 + 4 +

G|----------------------------------------------3-2----------------|
D|---------------------------3-2-----------------------------------|
A|-1-----3-4-------------3-4-----3-1-----3-4-----------------------|
E|---------------3-2--------------------------22-------------------|
   1 + 2 + 3 + 4 + 1 + 2 + 3 + 4 + 1 + 2 + Triplet 1 + 2 + 3 + 4 +

G|------------------------------------------------3-2----------------|
D|o---------------------------3-2-------------------------2-3-------o|
A|o-1-----3-4-------------3-4-----3-1-----3-4-----------------3-4-0-o|
E|----------------3-2--------------------------22--------------------|
    1 + 2 + 3 + 4 + 1 + 2 + 3 + 4 + 1 + 2 + Triplet 1 + 2 + 3 + 4 +

0:30
G|-----------------------------------------------------------------|
D|-----------------------------------------------------------------|
A|-------------------------------4---------------------------------|
E|-2-2---2-3--3--3-2-----2-3-3-----2-----2-3--3--3-----------------|
   1 + 2 + Triplet 1 + 2 + 3 + 4 + 1 + 2 + Triplet 1 + 2 + 3 + 4 +

G|-----------------------------------------------------------------|
D|---------------------------------------------------2-1-0---------|
A|-------5-3-----3-----------------------------------------4-3-1-0-|
E|------------3----2-----2-3-3-3-3-2-----2-3--3--3-----------------|
   1 + 2 + Triplet 1 + 2 + 3 + 4 + 1 + 2 + Triplet 1 + 2 + 3 + 4 +

0:42
G|-----------------------------------------------3-2---------------|
D|---------------------------3-2-------------------------2-3-------|
A|-1-----3-4-------------3-4-----3-1-----3-4-----------------3-4-0-|
E|---------------3-2--------------------------2--------------------|
   1 + 2 + 3 + 4 + 1 + 2 + 3 + 4 + 1 + 2 + Triplet 1 + 2 + 3 + 4 +

G|-----------------------------------------------3-2---2---2---2---------------7-----7-|
D|---------------------------3-2--------------------------------------------------7----|
A|-------3-4-------------3-4-----3-------3-4-----------------------4-4-4-4-4-4---------|
E|-6-\-----------3-2---------------6-\--------2----------------------------------------|
   1 + 2 + 3 + 4 + 1 + 2 + 3 + 4 + 1 + 2 + Triplet 1 + 2 + 3 + 4 + Tripl Tripl Triplet

Chorus 0:55
G|-------------------------------------------------------------------------------------------------|
D|-------------------------------------------------------------------------------------------------|
A|-6---6-6-6-6-6---6-6-6-6-6---6-6-6-6-6---6-6-6-6-2---2-2-2-2-2---2-2-2-2-2---2-2-2-2-2---2-2-----|
E|---------------------------------------------------------------------------------------------6-4-|
   Tripl Tripl Tripl Tripl Tripl Tripl Tripl Tripl Tripl Tripl Tripl Tripl Tripl Tripl Tripl Tripl

G|-------------------------------------------------------------------------------------------------|
D|-------------------------------------------------------------------------------------------------|
A|-------------------------------------------------1---1-1-1-1-1---1-1-1-1-5-5-5-5-5-5-5-5-5-5-5-5-|
E|-2---2-2-2-2-2---2-2-2-2-2---2-2-2-2-2---2-2-2-2-------------------------------------------------|
   Tripl Tripl Tripl Tripl Tripl Tripl Tripl Tripl Tripl Tripl Tripl Tripl Tripl Tripl Tripl Tripl

G|-------------------------------------------------------------------------------------------------|
D|-------------------------4---4-4-4-4-4---4-4-4-4-------------------------------------------------|
A|-6---6-6-6-6-6---6-6-6-6-------------------------2---2-2-2-2-2---2-2-2-2-2---2-2-2-2-2---4-------|
E|-------------------------------------------------------------------------------------------------|
   Tripl Tripl Tripl Tripl Tripl Tripl Tripl Tripl Tripl Tripl Tripl Tripl Tripl Tripl Tripl Tripl

G|-------------------------------------------------------------------------------------------------|
D|-------------------------------------------------------------------------------------------------|
A|---------------------------------------------------------------------------------------1-1-1-1-1-|
E|-2---2-2-2-2-2---2-2-2-2/6---6-6-6-6-6---6-4-4-4-1---1-1-1-1-1---1-1-1-1-1-1-1-1-1-1-1-----------|
   Tripl Tripl Tripl Tripl Tripl Tripl Tripl Tripl Tripl Tripl Tripl Tripl Tripl Tripl Tripl Tripl

Interlude1:18
G|-------------------------------------------------------------------------|
D|-------------------------------------------------3-3-3-3-3-3-3-3-3-------|
A|-2-------2-------2-------2-4-----5---------------------------------------|
E|-------------------------------------------------------------------1-1-1-|
   1 + 2 + 3 + 4 + 1 + 2 + 3 + 4 + 1 + 2 + 3 + 4 + Tripl Tripl Tripl Tripl

G|---------------------------------------------------------------------------------------|
D|----/8-8-8-7----------/8-8-8-7----------/8-8-8-7--2--3-4b------3-----1-4---3---1-------|
A|-1------------3--4-1------------3--4-1----------------------------4----------------4-3-|
E|---------------------------------------------------------------------------------------|
   1 + Tripl Triplet 1 + Tripl Triplet 1 + Tripl Triplet 1 + 2 + Triplet 1 + 2 + 3 + 4 +

Verse 1:31
G|-----------------------------------------------3-5-5-5-5-5-5-5-5-|
D|---------------------------3-2-----------------------------------|
A|-1-----3-4-------------3-4-----3-1-----3-4-----------------------|
E|---------------3-2--------------------------22-------------------|
   1 + 2 + 3 + 4 + 1 + 2 + 3 + 4 + 1 + 2 + Triplet 1 + 2 + 3 + 4 +

G|-5-5-5-5-5-5-5-5-5-5-5-5-5-5-5-5-9-9-9-12-12-12-15-15-15-17-17-17-|
D|------------------------------------------------------------------|
A|------------------------------------------------------------------|
E|------------------------------------------------------------------|
   1 + 2 + 3 + 4 + 1 + 2 + 3 + 4 + Tripl Tripl    Tripl    Tripl

1:41
G|-----------------------------------------------------------------|
D|-----------------------------2-3---------------4-3-----2-3-------|
A|---------------4-3-----1-3-4-------------------------------3-4-0-|
E|-2-2---2-3--3--------------------2-----2-3--3--------------------|
   1 + 2 + Triplet 1 + 2 + 3 + 4 + 1 + 2 + Triplet 1 + 2 + 3 + 4 +

G|-----------------------------------------------------2---5-------|
D|-----------------------------2-----------------4-3---------------|
A|---------------4-3-----1-3-4-------------------------------------|
E|-2-----2-3--3------------------1-2-----2-3--3--------------------|
   1 + 2 + Triplet 1 + 2 + 3 + 4 + 1 + 2 + Triplet 1 + 2 + 3 + 4 +

1:53
G|-------------------------------------------------------------------------------------------------|
D|-----------------------3-4---4-4-4-4-4---4-4-4-4-------------------------------------------------|
A|-6---6-6-6-6-6---6-6-6---------------------------2---2-2-2-2-2---2-2-2-2-2---2-2-2-2-2---2-2-2-2-|
E|-------------------------------------------------------------------------------------------------|
   Tripl Tripl Tripl Tripl Tripl Tripl Tripl Tripl Tripl Tripl Tripl Tripl Tripl Tripl Tripl Tripl

G|-------------------------------------------------------------------------------------------------|
D|-------------------------------------------------------------------------------------------------|
A|-------------------------------------------------1---1-1-1-1-1---1-1-1-1-5-5-5-5-5-5-5-5-5-5-5-5-|
E|-2---2-2-2-2-2---2-2-2-2/6---6-6-6-6-6---6-6-6-6-------------------------------------------------|
   Tripl Tripl Tripl Tripl Tripl Tripl Tripl Tripl Tripl Tripl Tripl Tripl Tripl Tripl Tripl Tripl

2:04
G|-------8-----------8-----------8-----------8-----------4-----------4-----------4-----------------|
D|---------8-----------8-----------8-----------8-----------4-----------4-----------4---------------|
A|-6---6-----9-6---6-----9-6---6-----9-6---6-----9-2---2-----5-2---2-----5-2---2-----5-2---4-------|
E|-------------------------------------------------------------------------------------------------|
   Tripl Tripl Tripl Tripl Tripl Tripl Tripl Tripl Tripl Tripl Tripl Tripl Tripl Tripl Tripl Tripl

G|-------------------------------------------------------------------------------------------------|
D|-------4-----------4-----------4-----------4-----------3-----------3-----------------------------|
A|---------4-----------4-----------4-----------4-----------3-----------3-----------------1-1-1-1-1-|
E|-2---2-----5-2---2-----5-2---2-----5-2---2-----5-1---1-----4-1---1-----4-1-1-1-1-1-1-1-----------|
   Tripl Tripl Tripl Tripl Tripl Tripl Tripl Tripl Tripl Tripl Tripl Tripl Tripl Tripl Tripl Tripl

2:16
G|-----------------------------------------------------------------|
D|-----------------------------------------------------------------|
A|-2-2---2-2-------2-2---2-2-------4-4---4-4-------4-4---4-4-------|
E|-----------------------------------------------------------------|
   1 + 2 + 3 + 4 + 1 + 2 + 3 + 4 + 1 + 2 + 3 + 4 + 1 + 2 + 3 + 4 +

G|-----------------------------------------------------------------|
D|-------------------------------------------------4--4--4-4--4--4-|
A|-5-5---5-5-------5-5---5-5-------6-6---6-6-----------------------|
E|-----------------------------------------------------------------|
   1 + 2 + 3 + 4 + 1 + 2 + 3 + 4 + 1 + 2 + 3 + 4 + Triplet Triplet

G|--------------------------------------------------------------------------------------|
D|-------------------------------------------------3-3-3-3-3-3-3-3-3--------------------|
A|-2-------2-------2---2-2-2-4-----5---------------------------------3-3----------------|
E|-----------------------------------------------------------------------4-1------------|
   1 + 2 + 3 + 4 + 1 + 2 + 3 + 4 + 1 + 2 + 3 + 4 + Tripl Tripl Tripl Tripl

Rest

Bridge 2:51
G|-----------------------------------------------------------------|
D|-----------------------------------------------------------------|
A|-1-1-1-1-1-1-1-1-0-0-0-0-0-0-0-0-3-3-3-3-3-3-3-3-2-2-2-2-2-2-2-2-|
E|-----------------------------------------------------------------|
   1 + 2 + 3 + 4 + 1 + 2 + 3 + 4 + 1 + 2 + 3 + 4 + 1 + 2 + 3 + 4 +

G|-------------------------------------------------------------2-3-|
D|-----------------0-0-0-0-0-0-0-0-3-3-3-3-3-5-3-3-2-2-2-2-2-3-----|
A|/6-6-6-6-6-6-6-6-------------------------------------------------|
E|-----------------------------------------------------------------|
   1 + 2 + 3 + 4 + 1 + 2 + 3 + 4 + 1 + 2 + 3 + 4 + 1 + 2 + 3 + 4 +

3:03
G|-----------------------------------10---10----14----14----13----------------------|
D|-3-3---3-7-7---7-6-6---6----------------------------------------------------------|
A|-------------------------7-7---7-8----8----12----12----11----11-7---7---7---------|
E|----------------------------------------------------------------------------------|
   1 + 2 + 3 + 4 + 1 + 2 + 3 + 4 + 1 +  2 +  3  +  4  +  1  +  2  + 3 + 4 + 1 + 2 + 

G|-----------------------------------10---11----13----14-----------------------------------|
D|-3-3---3-7-7---7-6-6---6-----------------------------------------------------------------|
A|-------------------------7-7---7-8----9----11----12----14---------------15---------------|
E|-----------------------------------------------------------------------------------------|
   1 + 2 + 3 + 4 + 1 + 2 + 3 + 4 + 1 +  2 +  3  +  4  +  1  + 2 + 3 + 4 + 1  + 2 + 3 + 4 + 

3:18
G|-----------------------------------------------------------------|
D|-----------------------------------------4---3-------------------|
A|-1---3--4------------------------1---3--4------------------------|
E|---------3---2-----------------------------------/---------------|
   1 + 2 + 3 + 4 + 1 + 2 + 3 + 4 + 1 + 2 + 3 + 4 + 1 + 2 + 3 + 4 +

G|-----------------------------------------------------------------|
D|-----------------------------------------4---3-------------2-3---|
A|-1---3--4------------------------1---3--4----------3-4-----------|
E|---------3---2-/-14-\--------------------------------------------|
   1 + 2 + 3 + 4 + 1 + 2 + 3 + 4 + 1 + 2 + 3 + 4 + 1 + 2 + 3 + 4 +

G|------------------------------------------------------------------|
D|-----------------------------------------4---3--------------------|
A|-1---3--4------------------------1---3--4--------8-\--------------|
E|---------3---2---------------------------------------1---/-13-\---|
   1 + 2 + 3 + 4 + 1 + 2 + 3 + 4 + 1 + 2 + 3 + 4 + 1 + 2 + 3 + 4 +

G|-----------------------------------------------------------------------|
D|-----------------------------------------4---3-------------2h3p2-------|
A|-1---3--4------------------------1---3--4----------3-4-----------3h4p3-|
E|---------3---2---------------------------------------------------------|
   1 + 2 + 3 + 4 + 1 + 2 + 3 + 4 + 1 + 2 + 3 + 4 + 1 + 2 + 3 +   4   +

3:41
G|---------------------------------------------------------------------|
D|---------------------------------------------------------------8-8-8-|
A|-4--4--4-4--4--4-4--4--4-4--4--4-4--4--4-4--4--4---4-6---7-7-7-------|
E|---------------------------------------------------------------------|
   Triplet Triplet Triplet Triplet Triplet Triplet 1 + 2 + Tripl Tripl

G|---------------------------------------------------------------5-5-5-|
D|---------------------------------------------------1-2---6-6-6-------|
A|-4--4--4-4--4--4-4--4--4-4--4--4-4--4--4-4--4--4---------------------|
E|---------------------------------------------------------------------|
   Triplet Triplet Triplet Triplet Triplet Triplet 1 + 2 + Tripl Tripl

G|---------------------------------------------------------------------|
D|---------------------------------------------------------------8-8-8-|
A|-4-------4-------4-------4-------4-------4---------4-6---7-7-7-------|
E|---------------------------------------------------------------------|
   1 + 2 + 3 + 4 + 1 + 2 + 3 + 4 + 1 + 2 + 3 + 4 + 1 + 2 + Tripl Tripl

G|-----------------------------------------------------------------|
D|-----------------------------------------------------------------|
A|-4-------4-------4-------4-------4-4-----4-4-----4-4-----4-5-----|
E|-----------------------------------------------------------------|
   1 + 2 + 3 + 4 + 1 + 2 + 3 + 4 + 1 + 2 + 3 + 4 + 1 + 2 + 3 + 4 +

G|-----------------8-6---6-------6-----|
D|---------------------8---8-6-8-------|
A|-6-----------------------------------|
E|-------------------------------------|
   1 + 2 + 3 + 4 + Tripl Tripl 3 + 4 + 

Chorus 4:08
G|-------4-----------4-----------4-----------4-----|
D|---------4-----------4-----------4-----------4---|
A|-2---2-----5-2---2-----5-2---2-----5-2---2-----5-|
E|-------------------------------------------------|
   Tripl Tripl Tripl Tripl Tripl Tripl Tripl Tripl 

G|-------------------------------------------------------------------------------------6-8-6-------|
D|-------4-----------4-----------4-----------4-----------8-----------8-----------8-----------8-6---|
A|---------4-----------4-----------4-----------4-----------8-----------8-----------8-------------8-|
E|-2---2-----5-2---2-----5-2---2-----5-2---2-----5-6---6-----9-6---6-----9-6---6-----9-------------|
   Tripl Tripl Tripl Tripl Tripl Tripl Tripl Tripl Tripl Tripl Tripl Tripl Tripl Tripl Tripl Tripl

G|-------8-----------8-----------8-----------8-----------4-----------4-----------4-----------------|
D|---------8-----------8-----------8-----------8-----------4-----------4-----------4---------------|
A|-6---6-----9-6---6-----9-6---6-----9-6---6-----9-2---2-----5-2---2-----5-2---2-----5-2---4-------|
E|-------------------------------------------------------------------------------------------------|
   Tripl Tripl Tripl Tripl Tripl Tripl Tripl Tripl Tripl Tripl Tripl Tripl Tripl Tripl Tripl Tripl

G|-------------------------------------------------------------------------------------------------|
D|-------4-----------4-----------4-----------4-----------3-----------3-----------------------------|
A|---------4-----------4-----------4-----------4-----------3-----------3---------------------------|
E|-2---2-----5-2---2-----5-2---2-----5-2---2-----5-1---1-----4-1---1-----4-1-1-1-1-1-1-1-6-6-6-6-6-|
   Tripl Tripl Tripl Tripl Tripl Tripl Tripl Tripl Tripl Tripl Tripl Tripl Tripl Tripl Tripl Tripl

4:28
G|-------8-----------8-----------8-----------8-----------10----------10----------10----------10----|
D|-----9---9-------9---9-------9---9-------9---9-------11--11------11--11------11--11------11--11--|
A|---9-------9---9-------9---9-------9---9-------9---11------11--11------11--11------11--11------11|
E|-7-----------7-----------7-----------7-----------9-----------9-----------9-----------9-----------|
   Tripl Tripl Tripl Tripl Tripl Tripl Tripl Tripl Tripl Tripl Tripl Tripl Tripl Tripl Tripl Tripl


G|-------10----------10----------101310--10--------------11----------11--------------------|
D|-----12--12------12--12------12------12--1210--------13--13------13--13------------------|
A|---12------12--12------12--12----------------1210--13------13--13------139--9--9-9--8--7-|
E|-10----------10----------10----------------------11----------11--------------------------|
   Tripl Tripl Tripl Tripl Tripl Tripl Tripl Tripl Tripl Tripl Tripl Tripl Triplet Triplet

G|-----------------------------------------------------------------|
D|---------6---------6---------------------------4-1---------------|
A|---------------------------1-----2-----4-5-----------------------|
E|-4---------------4---4---4---------------------------------------|
   1 + 2 + 3 + 4 + 1 + 2 + 3 + 4 + 1 + 2 + 3 + 4 + 1 + 2 + 3 + 4 + 
Tabbed by Dave Vucko
Suggest correction
Creating personal tab
Creating personal tab
You can edit any tab online and save it as your Personal.

You can edit, replace or remove any tab part or add personal notes – all changes will be seen only by you.

Personal tabs can be accessed anytime from any device, even offline.
Learn more »
Give kudos to tab author, rate the tab!
1 2 3 4 5
comments
print report bad tab
3 comments total.
0 reply
Robert2511 321 Oct 21, 2015 05:48 PM

All I can say is FUCK YOU DREW, why do your bass lines have to be so difficult

guest
You may want to rate the tab now too:
select rating
Wanna post a correction for this tab? Suggest correction