Oops, an error
Loading. Please wait.

Abaddon Destroyer Bass Tab

120 views 1 this week
no commentswrite comment
1 2 3 4 5
3 more votes to show rating
add to favorites
launch autoscroll
font size
0
reset
guitar tuner
Autoscroll
slow
fast
+/-
esc
set tempo
stop
Help us to improve Ultimate-Guitar.com Take our survey!
×
Author
                    Abaddon Destroyer (Bass Line)
                        recorded by Fearscape
                          www.fearscape.com

Words By Matthew Brown
Music By Fearscape
Tabbed By: PRB75

Standard Tuning:

4/4
Intro:
G|----------------------|-----------------------------|
D|----------------------|-----------------------------|
A|----------------------|-----------------------------|
E|-----0-0-0-1---0-0-0-0|-0-0-0-0-0-0-0-0-1---0-0-0-0-|

G|-----------------------------|-------------------------|
D|-----------------------------|-------------------------|
A|-----------------------------|-------------------------|
E|-0-0-0-0-0-0-0-0-1---0-0-0-0-|-0-0-0-0-4---5---0-0-0-0-|

G|-----------------------------|-----------------------------|
D|-----------------------------|-----------------------------|
A|-----------------------------|-----------------------------|
E|-0-0-0-0-0-0-0-0-1---0-0-0-0-|-0-0-0-0-0-0-0-0-1---0-0-0-0-|

G|-----------------------------|-------------------------|
D|-----------------------------|-------------------------|
A|-----------------------------|-------------------------|
E|-0-0-0-0-0-0-0-0-1---0-0-0-0-|-0-0-0-0-4---5---0-0-0-0-|

G|-----------------------------|-----------------------------|
D|-----------------------------|-----------------------------|
A|-----------------------------|-----------------------------|
E|-0-0-0-0-0-0-0-0-1---0-0-0-0-|-0-0-0-0-0-0-0-0-1---0-0-0-0-|

G|-----------------------------|--------------------||
D|-----------------------------|--------------------||
A|-----------------------------|--------------------||
E|-0-0-0-0-0-0-0-0-1---0-0-0-0-|-0-0-0-0-4----------||

G||-----------------------------|-----------------------------|
D||o----------------------------|-----------------------------|
A||o----------------------------|-----------------------------|
E||-0-0-0-0-0-0-0-0-1---0-0-0-0-|-0-0-0-0-0-0-0-0-1---0-0-0-0-|
                                                         4x
G|-----------------------------|-------------------------||
D|-----------------------------|------------------------o||
A|-----------------------------|------------------------o||
E|-0-0-0-0-0-0-0-0-1---0-0-0-0-|-0-0-0-0-4---5---0-0-0-0-||


Pre Verse:
G||--------------------------|-----------------------|
D||o-------------------------|-----------------------|
A||o-------------------------|------------------11---|
E||-0-0-0-0-8---0-0-0-0-10---|0-0-0-0-12---13--------|
                                                               4x
G|----------------------------|--------------------------------||
D|----------------------------|-------------------------------o||
A|----------------------------|-------------------------------o||
E|0-0-0-0-1-1-1-1-1-1-1-1-0---|4-4-4-4-4-4-4-4-4-4-4-4-4-4-4-4-||


Verse:
G||---------------------|----------------------|---------------------|
D||o--------------------|----------------------|---------------------|
A||o--------7---8---7---|---------9---10---9---|---------7---8---7---|
E||-0-0-0-0-------------|-0-0-0-0--------------|-0-0-0-0-------------|
                        4x
G|----------------------||
D|---------------------o||
A|---------------------o||
E|-0-0-0-0-5---4---1----||


G|-------------------------|-------------------------|
D|-------------------------|-------------------------|
A|-3--3--2--2--------------|-------------------------|
E|-------------0--0--5--5--|-4--4--0--0--1--1--0--0--|

Chorus:                                                                    4x
G||-----------------|-----------------|-----------------|------------------||
D||o----------------|-----------------|-----------------|------------------||
A||o----------------|-------------0---|-----------------|---------2---1---o||
E||-1---1---0---0---|-4---4---1-------|-1---0---5---4---|-1---0------------||

Repeat pre-verse, verse and Chorus.


Triplet feel through to the end of song.
Bridge:
G||-----------------|-----------------|-----------------|-----------------|
D||o----------------|-----------------|-----------------|-----------------|
A||o----------------|-----------------|-----------------|-----------------|
E||-0-0-0---0-0-0---|-0-0-0---0-1-----|-0-0-0---0-0-0---|-0-0-0---0-4-----|

G|-----------------|-----------------|-----------------|-----------------|
D|-----------------|-----------------|-----------------|-----------------|
A|-----------------|-----------1-----|-----------------|-----------4-----|
E|-0-0-0---0-0-0---|-0-0-0---0-------|-0-0-0---0-0-0---|-0-0-0---0-------|
                                                     3x
G|-------------------------|-------------------------||
D|-------------------------|------------------------o||
A|-------------------------|------------------------o||
E|-7-7-7-7-7-7-4-4-4-4-4-4-|-5-5-5-5-5-5-1-1-1-1-1-1-||


Instrumental: (bass tapping) t = right hand T = left hand
G||-17-----17-----17-----17-----|-16-----16-----16-----16-----|
D||o---7------7------7------7---|----7------7------7------7---|
A||o-----8------8------8------8-|------8------8------8------8-|
E||-----------------------------|-----------------------------|
     t T T  t T T  t T T  t T T    t T T  t T T  t T T  t T T

G|-14---9-14---9-14---9-14---9-|-13---9-13---9-13---9-13---9-||
D|----7------7------7------7---|----7------7------7------7--o||
A|-----------------------------|----------------------------o||
E|-----------------------------|-----------------------------||
    t T T  t T T  t T T  t T T    t T T  t T T  t T T  t T T

G||-14-----14-----14-----14-----|-13-----13-----13-----13------||
D||o-----7------7------7------7-|------7------7------7------7-o||
A||o---5------5------5------5---|----5------5------5------5---o||
E||-----------------------------|------------------------------||
     t T T  t T T  t T T  t T T    t T T  t T T  t T T  t T T
(repeat instrumental)


Guitar solo:
G|-------------------------|-------------------------|-------------------------|
D|-------------------------|-------------------------|-------------------------|
A|-8-8-8-8-8-8-8-8-8-8-8-8-|-7-7-7-7-7-7-7-7-7-7-7-7-|-0-0-0-0-0-0-0-0-0-0-0-0-|
E|-------------------------|-------------------------|-------------------------|

G|---------------------------|-------------------------|
D|--------------7---7-7------|-------------------------|
A|-0-0-0-7-8-10---------10-8-|-8-8-8-8-8-8-8-8-8-8-8-8-|
E|---------------------------|-------------------------|

G|-------------------------|-------------------------|
D|-------------------------|-------------------------|
A|-7-7-7-7-7-7-7-7-7-7-7-7-|-0-0-0-0-0-0-0-0-0-0-0-0-|
E|-------------------------|-------------------------|

G|---------------------------------|
D|-------------12-14---14-14-------|
A|-0-0-0-12-14---------------14-12-|
E|---------------------------------|

G|-------------------------|-------------------------|-------------------------|
D|-------------------------|-------------8-----7-----|-------------------------|
A|-5-5-5-5-5-5-5-5-5-5-5-5-|-5-5-5-5-5-5---5-5---5-5-|-5-5-5-5-5-5-5-5-5-5-5-5-|
E|-------------------------|-------------------------|-------------------------|

G|-------------------------|
D|-------5---5-7-7-5-------|
A|-5-7-8-------------8-7-5-|
E|-------------------------|

G|-------------------------|-------------------------|-------------------------|
D|-------------------------|-------------------------|-------------------------|
A|-8-8-8-8-8-8-8-8-8-8-8-8-|-7-7-7-7-7-7-7-7-7-7-7-7-|-0-0-0-0-0-0-0-0-0-0-0-0-|
E|-------------------------|-------------------------|-------------------------|

G|---------------------------|
D|--------------7------------|
A|-0-0-0-7-8-10-----0-10-8-7-|
E|---------------------------|

G|-------------------------|-------------------------|-------------------------|
D|-------------------------|-------------------------|-------------------------|
A|-8-8-8-8-8-8-8-8-8-8-8-8-|-7-7-7-7-7-7-7-7-7-7-7-7-|-0-0-0-0-0-0-0-0-0-0-0-0-|
E|-------------------------|-------------------------|-------------------------|

G|-------12-14-14-14-14-12----------|
D|-------------------------14-12----|
A|-0-0---------------------------14-|
E|----------------------------------|

G|-------------------------|-------------------------|-------------------------|
D|-------------------------|-------------------------|-------------------------|
A|-5-5-5-5-5-5-5-5-5-5-5-5-|-5-5-5-5-5-5-5-5-5-5-5-5-|-5-5-5-5-5-5-5-5-5-5-5-5-|
E|-------------------------|-------------------------|-------------------------|

G|---------------------------|
D|-------5---------5---------|
A|-5-7-8-----5-7-----8-7-5---|
E|---------------------------|


Outro:                                    8x
G||-----------------|---------------------||------------||
D||o----------------|--------------------o||------------||
A||o----------------|--------------------o||------------||
E||-0-0-0---0-0-0---|-0-0-0---0-0-0-0-0-0-||-0----------||
Suggest correction
Give kudos to tab author, rate the tab!
1 2 3 4 5
comments
print report bad tab
guest
You may want to rate the tab now too:
select rating
Wanna post a correction for this tab? Suggest correction