Oops, an error
Loading. Please wait.

Fall Of Icarus Bass Tab

46 views 1 this week
no commentswrite comment
1 2 3 4 5
3 more votes to show rating
add to favorites
launch autoscroll
font size
0
reset
guitar tuner
Autoscroll
slow
fast
+/-
esc
set tempo
stop
Help us to improve Ultimate-Guitar.com Take our survey!
×
Author
                               Fall Of Icarus (Bass Solo)
                                 Recorded By Fearscape
                                   www.fearscape.com

Music by Phil Bloomfield
Tabbed By: PRB75

(Bass tapping throughout) t = right hand T = Left hand
4/4  8th notes  (106 bpm)
G||---12---------12-------|---12---------12-------|---11---------11-------|
D||o-----14---------14----|------14---------14----|------14---------14----|
A||o--------14---------14-|---------14---------14-|---------14---------14-|
E||-12---------12---------|-12---------12---------|-10---------10---------|
    T  T  t  t  T T  t  t   T  T t  t  T  T t  t    T  T t  t  T  T  t  t 

G|---11------11-----|---9--------9------|---9--------9------|
D|-----14------14---|-----16-------16---|-----16-------16---|
A|-------14------14-|-------15-------15-|-------15-------15-|
E|-10------10-------|-8--------8--------|-8--------8--------|
    T T t t T T t t   T T t t  T T t t    T T sim.

G|---8--------8------|---8--------8-------||
D|-----17-------17---|-----17-------17---o||
A|-------17-------17-|-------17-------17-o||
E|-7--------7--------|-7--------7---------||
   

G||---12-14------12-16----|---12-14------12-16----|---11-14------11-12----|
D||o--------14---------14-|---------14---------14-|---------12---------12-|
A||o----------------------|-----------------------|-----------------------|
E||-12---------12---------|-12---------12---------|-10---------10---------|
    T  T  t  t  T T  t  t sim.

G|---11-14------11-12----|---9-12------9-11----|---9-12------9-11----|
D|---------12---------12-|--------10--------10-|--------10--------10-|
A|-----------------------|---------------------|---------------------|
E|-10---------10---------|-8---------8---------|-8---------8---------|

G|---8-11-----8-12---|---8-11-----8-12----||
D|--------9--------9-|--------9----------o||
A|-------------------|-------------------o||
E|-7--------7--------|-7--------7---------||


16th notes (gradually speeding up until end). 

G|--12-14----12-16----12-14----12-16---|--12-14----12-16----12-14----12-16---|
D|-------14-------14-------14-------14-|-------14-------14-------14-------14-|
A|-------------------------------------|-------------------------------------|
E|12-------12-------12-------12--------|12-------12-------12-------12--------|
  T T  t t T  T t t T  T t t T T  t t sim.

G|--11-14----11-12----11-14----11-12---|--11-14----11-12----11-14----11-12---|
D|-------12-------12-------12-------12-|-------12-------12-------12-------12-|
A|-------------------------------------|-------------------------------------|
E|10-------10-------10-------10--------|10-------10-------10-------10--------|

G|--9-12---9-11---9-12---9-11----|--9-12---9-11---9-12---9-11----|
D|------10-----10-----10-----10--|------10-----10-----10-----10--|
A|-------------------------------|-------------------------------|
E|-8------8------8------8--------|-8------8------8------8--------|

G|--8-11--8-12--8-11--8-12--|--8-11--8-12--8-11--8-12--||
D|------9-----9-----9-----9-|------9-----9-----9-------||
A|--------------------------|--------------------------||
E|-7-----7-----7-----7------|-7-----7-----7-----7------||





G|--12-14----12-16----12-14----12-16---|--12-14----12-16----12-14----12-16---|
D|-------14-------14-------14-------14-|-------14-------14-------14-------14-|
A|-------------------------------------|-------------------------------------|
E|12-------12-------12-------12--------|12-------12-------12-------12--------|

G|--11-14----11-12----11-14----11-12---|--11-14----11-12----11-14----11-12---|
D|-------12-------12-------12-------12-|-------12-------12-------12-------12-|
A|-------------------------------------|-------------------------------------|
E|10-------10-------10-------10--------|10-------10-------10-------10--------|

G|--9-12---9-11---9-12---9-11----|--9-12---9-11---9-12---9-11----|
D|------10-----10-----10-----10--|------10-----10-----10-----10--|
A|-------------------------------|-------------------------------|
E|-8------8------8------8--------|-8------8------8------8--------|



G||---11---11---11---11--|----12-----12-----12-----12----||
D||o-9--9-9--9-9--9-9--9-|--10--10-10--10-10--10-10--10-o||
A||o---------------------|------------------------------o||
E||-7----7----7----7-----|-8------8------8------8--------||




G|---11---11----12-----12---|---11---11----12-----12---|
D|--9--9-9--9-10--10-10--10-|--9--9-9--9-10--10-10--10-|
A|--------------------------|--------------------------|
E|-7----7----8------8-------|-7----7----8------8-------|

                                            Strum
G|---11----12----11----12---|---11----12----9-----------||
D|--9--9-10--10-9--9-10--10-|--9--9-10--10--9-----------||
A|--------------------------|---------------7-----------||
E|-7----8------7----8-------|-7----8--------0-----------||


Suggest correction
Give kudos to tab author, rate the tab!
1 2 3 4 5
comments
print report bad tab
guest
You may want to rate the tab now too:
select rating
Wanna post a correction for this tab? Suggest correction