Oops, an error
Loading. Please wait.

Love Like No Other tab

232 views 1 this week
no commentswrite comment
1 2 3 4 5
3 more votes to show rating
add to favorites
×
Save as Personal and add changes to this tab that will be seen only by you. Learn more ›
×
You can save this tab as Personal to edit and correct it or add notes. All changes will be seen only by you. Learn more »
launch autoscroll
font size
0
reset
how to read this tab
guitar tuner
edit
Autoscroll
slow
fast
+/-
esc
set tempo
stop
About this tab version
Love Like No Other - Feast Worship. Was this info helpful? Yes No
[Intro]
e|---------------------------------------------------------------------|
B|---------------------------------------------------------------------|
G|---------------------------11-------------11-13-13-13-13-13-13-13----|
D|--9-9-9-9-9-11-13-13-13-13----13-13-13-13----------------------------| use delay 100-500 ms
A|---------------------------------------------------------------------|
E|---------------------------------------------------------------------|


e|---------------------------------------------------------------------|
B|---------------------------------------------------------------------|
G|---------------------------11-------------11-13-13-13-13-13-13-13----|
D|--9-9-9-9-9-11-13-13-13-13----13-13-13-13----------------------------| use delay 100-500 ms
A|---------------------------------------------------------------------|
E|---------------------------------------------------------------------|

[Verse]
     I've been knocking on different doors
e|--------------7------------------------------------------------------------|
B|--------------5------------------------------------------------------------|
G|--------------4------------------------------------------------------------|
D|---------------------------------------------------------------------------|
A|---------------------------------------------------------------------------|
E|---------------------------------------------------------------------------|
     Waiting for a love like yours
e|---9-----------------------------------------------------------------------|
B|---7-----------------------------------------------------------------------|
G|---8-----------------------------------------------------------------------|
D|---------------------------------------------------------------------------|
A|---------------------------------------------------------------------------|
E|---------------------------------------------------------------------------|

     I'm aware of the fact
e|-------11-----------------------------------------------------------------|
B|-------12-----------------------------------------------------------------|
G|-------11-----------------------------------------------------------------|
D|--------------------------------------------------------------------------|
A|--------------------------------------------------------------------------|
E|--------------------------------------------------------------------------|

    Your love was chasing me
e|--------4-----------------------------------------------------------------|
B|--------5-----------------------------------------------------------------|
G|--------7-----------------------------------------------------------------|
D|--------------------------------------------------------------------------|
A|--------------------------------------------------------------------------|
E|--------------------------------------------------------------------------|

  
e|-----11--11-----------------------------------|
B|-----12--12---11-11-11---7-7--9-9-9-----------|
G|-----11--11---11-11-11---8-8--9-9-9-----------|
D|--------------11-11-11---8-8--9-9-9-----------|
A|--------------9--9--9----6-6--7-7-7-----------|
E|----------------------------------------------|

[Verse]
     I've been welcomed in your embrace
e|--------------11--------------------------11---------|
B|--------------12------------------------12--12--12---|
G|--------------11----------------------11------11-----|
D|-----------------------------------------------------|
A|-----------------------------------------------------|
E|-----------------------------------------------------|

     Undeserving of saving grace
e|--------------6--7-----------------------------------|
B|--------------7--------------------------------------|
G|--------------8--------------------------------------|
D|-----------------------------------------------------|
A|-----------------------------------------------------|
E|-----------------------------------------------------|

    Though I stumble and fall
e|-----------------11----------------------------------|
B|--------------12-------------------------------------|
G|-----------11----------------------------------------|
D|-----------------------------------------------------|
A|-----------------------------------------------------|
E|-----------------------------------------------------|

   Your love keeps on chasing me
e|---------------------7------------------------------|
B|---------------------5------------------------------|
G|---------------------4------------------------------|
D|----------------------------------------------------|
A|----------------------------------------------------|
E|----------------------------------------------------|


e|-----9--9--------------------------------------|
B|-----7--7------11-11-11---7-7--9-9-9-----------|
G|-----8--8------11-11-11---8-8--9-9-9-----------|
D|---------------11-11-11---8-8--9-9-9-----------|
A|---------------9--9--9----6-6--7-7-7-----------|
E|-----------------------------------------------|


[Chorus]
      And oh   I'm found in the hope of my savior
e|---------9-------9-----------------------7-------|
B|---------7-------7-----------------------5-------|
G|---------6-------8-----------------------4-------|
D|-------------------------------------------------|
A|-------------------------------------------------|
E|-------------------------------------------------|
     Your love    Jesus you love like no other
e|--------9-------9------------------------7-------|
B|--------7-------7------------------------5-------|
G|--------6-------8------------------------4-------|
D|-------------------------------------------------|
A|-------------------------------------------------|
E|-------------------------------------------------|

     And oh     I'm found in the hope of my savior
e|--------9----------11----------9----------7------|
B|--------7----------12----------7----------5------|
G|--------6----------11----------8----------4------|
D|-------------------------------------------------|
A|-------------------------------------------------|
E|-------------------------------------------------|
  
    Your love   Jesus you love like no other  You are my home 

e|--------9------11-------7------------7-----------|  
B|--------7------12-------5------------5-----------|
G|--------6------11-------4------------4-----------|
D|-------------------------------------------------|
A|-------------------------------------------------|
E|-------------------------------------------------|

e|--------7-7-7-7-7---|
B|--------5-5-5-5-5---|
G|--------4-4-4-4-4---|
D|--------------------|
A|--------------------|
E|--------------------|

e|---------------------------------------------------------------------|
B|---------------------------------------------------------------------|
G|---------------------------11-------------11-13-13-13-13-13-13-13----|
D|--9-9-9-9-9-11-13-13-13-13----13-13-13-13----------------------------| use delay 100-500 ms
A|---------------------------------------------------------------------|
E|---------------------------------------------------------------------|


e|---------------------------------------------------------------------|
B|---------------------------------------------------------------------|
G|---------------------------11-------------11-13-13-13-13-13-13-13----|
D|--9-9-9-9-9-11-13-13-13-13----13-13-13-13----------------------------| use delay 100-500 ms
A|---------------------------------------------------------------------|
E|---------------------------------------------------------------------|

[Verse] 

  I've been knocking on different doors
e|--------------11--------------------------11---------|
B|--------------12------------------------12--12--12---|
G|--------------11----------------------11------11-----|
D|-----------------------------------------------------|
A|-----------------------------------------------------|
E|-----------------------------------------------------|

  Waiting for a love like yours
e|------------------7----------------------------------|
B|----------------9---9--------------------------------|
G|--------------8--------------------------------------|
D|-----------------------------------------------------|
A|-----------------------------------------------------|
E|-----------------------------------------------------|

   I'm aware of the fact
e|-------------11----------------------|
B|----------12-------------------------|
G|-------11----------------------------|
D|-------------------------------------|
A|-------------------------------------|
E|-------------------------------------|

  Your love was chasing me
e|-----------7------------------|
B|---------5--------------------|
G|-------4----------------------|
D|------------------------------|
A|------------------------------|
E|------------------------------|


e|-----11--11-----------------------------------|
B|-----12--12---11-11-11---7-7--9-9-9-----------|
G|-----11--11---11-11-11---8-8--9-9-9-----------|
D|--------------11-11-11---8-8--9-9-9-----------|
A|--------------9--9--9----6-6--7-7-7-----------|
E|----------------------------------------------|


[Chorus]
      And oh   I'm found in the hope of my savior
e|---------9-------9-----------------------7-------|
B|---------7-------7-----------------------5-------|
G|---------6-------8-----------------------4-------|
D|-------------------------------------------------|
A|-------------------------------------------------|
E|-------------------------------------------------|
     Your love    Jesus you love like no other
e|---(11)--9-------9------------------------7------|
B|---(12)--7-------7------------------------5------|
G|---(11)--6-------8------------------------4------|
D|-------------------------------------------------|
A|-------------------------------------------------|
E|-------------------------------------------------|


    And oh     I'm found in the hope of my savior
e|--(11)-----9----------11----------9----------7---|
B|--(12)-----7----------12----------7----------5---|
G|--(11)-----6----------11----------8----------4---|
D|-------------------------------------------------|
A|-------------------------------------------------|
E|-------------------------------------------------|



  

            
            
Suggest correction
Creating personal tab
Creating personal tab
You can edit any tab online and save it as your Personal.

You can edit, replace or remove any tab part or add personal notes – all changes will be seen only by you.

Personal tabs can be accessed anytime from any device, even offline.
Learn more »
Give kudos to tab author, rate the tab!
1 2 3 4 5
comments
print report bad tab
guest
You may want to rate the tab now too:
select rating
Wanna post a correction for this tab? Suggest correction