Oops, an error
Loading. Please wait.

Buck Rogers tab

version 1
version 1
by Feeder
60,300 views 42 this week
27 commentsread comments
1 2 3 4 5
x 52
add to favorites
×
Save as Personal and add changes to this tab that will be seen only by you. Learn more ›
×
You can save this tab as Personal to edit and correct it or add notes. All changes will be seen only by you. Learn more »
launch autoscroll
font size
0
reset
how to read this tab
guitar tuner
edit
Autoscroll
slow
fast
+/-
esc
set tempo
stop
Author
I THINK THIS IS 100% CORRECT 
ANY COMMENTS, SUGGESTIONS ETC
MIRANDA.HARDING@BTOPENWORLD.COM
THANKS AND ENJOY!
INTRO (also play through verse)
E|-----------------------------------------
B|-----------------------------------------
G|-----------------------------------------    X2
D|-----------------------------------------
A|--11-11-11-11-11-11-11-11--6-6-6--7-7-7--
E|---0--0--0--0--0--0--0--0--4-4-4--5-5-5--

Verse
E|-----12----12----12----12---12----12----12----12--
B|--12----12----12----12---11----11----10----10-----
G|--------------------------------------------------    X4
D|--------------------------------------------------
A|--------------------------------------------------
E|--------------------------------------------------

E|----------------------------------
B|----------------------------------
G|----------------------------------    X2
D|--2-2-2-2-2-2-2-2--6-6-6--7-7-7---   
A|--2-2-2-2-2-2-2-2--6-6-6--7-7-7---
E|--0-0-0-0-0-0-0-0--4-4-4--5-5-5---

CHORUS
E|---------------------------------------
B|---------------------------------------
G|----------------------2-2-2-2-2-2-2-2--
D|--9-9-9-9-9-9-9-9--7-------------------
A|--9-9-9-9-9-9-9-9--7-------------------
E|--7-7-7-7-7-7-7-7--5-------------------

E|------------------------------------
B|------------------------------------
G|------------------------------------
D|--2-2-2-2-2-2-2-2--9-9-9-9-9-9-9-9--
A|--2-2-2-2-2-2-2-2--9-9-9-9-9-9-9-9--
E|--0-0-0-0-0-0-0-0--7-7-7-7-7-7-7-7--

E|--------------------------------------------
B|--------------------------------------------
G|--------------------------------------------
D|--11-11-11-11-11-11-11-11--7-7-7-7-7-7-7-7--
A|--11-11-11-11-11-11-11-11--7-7-7-7-7-7-7-7--
E|---9--9--9--9--9--9--9--9--5-5-5-5-5-5-5-5--

E|------------------------------------------------------------------
B|------------------------------------------------------------------
G|------------------------------------------------------------------
D|-2-2-2-2-2-2-2-2-9-9-9-9-9-9-9-9-7-7-7-7-7-7-7-7-7-7-7-7-7-7-7-7--
A|-2-2-2-2-2-2-2-2-9-9-9-9-9-9-9-9-7-7-7-7-7-7-7-7-7-7-7-7-7-7-7-7--
E|-0-0-0-0-0-0-0-0-7-7-7-7-7-7-7-7-5-5-5-5-5-5-5-5-5-5-5-5-5-5-5-5--

E|-----------------------------------
B|------------------4--4--5--5--5----
G|------------------6b-6b-7b-7b-7b---
D|-2-2-2-2-2-2-2-2-------------------
A|-2-2-2-2-2-2-2-2-------------------
E|-0-0-0-0-0-0-0-0-------------------

REPEAT VERSE X1 AND CHORUS x2
THEN PLAY
E|-------------------------
B|-------------------------
G|-------------------------
D|-2-2-2-2-2-2--6--7-7-7---      x2
A|-2-2-2-2-2-2--6--7-7-7---
E|-0-0-0-0-0-0--4--5-5-5---

E|--------------------------------------------------------------
B|--------------------------------------------------------------
G|-13-13-13-11-11-11-8-8-8-6-6-6-13-13-13-11-11-11-8-8-8-9-9-9--
D|--X--X--X--X--X--X-X-X-X-X-X-X--X--X--X--X--X--X-X-X-X-X-X-X--
A|-11-11-11--9--9--9-6-6-6-4-4-4-11-11-11--9--9--9-6-6-6-7-7-7--
E|--------------------------------------------------------------

REPEAT CHORUS X2
THEN PLAY
E|-----------------------------------
B|------------------4--4--5--5--5----
G|------------------6b-6b-7b-7b-7b---
D|-----------------------------------
A|-2-2-2-2-2-2-2-2-------------------
E|-0-0-0-0-0-0-0-0-------------------

END

            
            
Suggest correction
Creating personal tab
Creating personal tab
You can edit any tab online and save it as your Personal.

You can edit, replace or remove any tab part or add personal notes – all changes will be seen only by you.

Personal tabs can be accessed anytime from any device, even offline.
Learn more »
comments
print report bad tab
27 comments total. Showing first comments.
0 reply
superpippo 10 Jan 10, 2003 07:00 PM

The verse riff is as follows

E]------0---0---0---0---0---0---0---0
B]----12--12--12--12--11--11--10--10
G]-------------------------------------

0 reply
agracer 10 Dec 28, 2003 07:00 PM

That is exactly what i was going to say ^
/|\
/ | \
|
|

0 reply
agracer 10 Dec 28, 2003 07:00 PM

That is exactly what i was going to say

guest
You may want to rate the tab now too:
select rating
Wanna post a correction for this tab? Suggest correction