Oops, an error
Loading. Please wait.

Buck Rogers Tab

version 4
version 4
1,369 views 3 this week
12 commentsread comments
1 2 3 4 5
x 7
add to favorites
launch autoscroll
font size
0
reset
how to read this tab
guitar tuner
×
Best way to learn
"Buck Rogers"
Autoscroll
slow
fast
+/-
esc
set tempo
stop
feeder,buck rogers.
Tabbed by macca,macca@nowikowski.fsnet.co.uk.
  
intro
guitar1 plays:

e-0-0-0-0-0-0-0-0-4-4-4-4-5-5-5-5
b--------------------------------
g--------------------------------    (X4 for intro)
d--------------------------------
a--------------------------------
E-0-0-0-0-0-0-0-0-4-4-4-4-5-5-5-5

guitar2 plays (comes in on 3rd bar of intro)
e---------------------------------
b-12--12--12--12--11--11--10--10--
g---------------------------------
d---------------------------------
a---------------------------------
E---------------------------------

verse  (same as intro)
hes got a brand new car...

hes got a cd 
player, player, player.....
e------------------------------------
b------------------------------------
g------------------------------------
d-2-2-2-2-2-2-2-2-6-6-6-6-7-7-7-7---- (X2)
a-2-2-2-2-2-2-2-2-6-6-6-6-7-7-7-7----
E-0-0-0-0-0-0-0-0-4-4-4-4-5-5-5-5----

        but i dont wanna talk about it anymore
e---------------------------------------------
b---------------------------------------------
g----------------------------------8b~~~~~~~~~
d-9-9-9-9-9-9-9-9-7-7-7-7-7-7-7-7-------------
a-9-9-9-9-9-9-9-9-7-7-7-7-7-7-7-7-------------
E-7-7-7-7-7-7-7-7-5-5-5-5-5-5-5-5-------------

chorus
               E5            B5
i think we're gonna make it
               F#m5           A5
i think we're gonna save me yeah
             E5             B5
so dont you try and fake it
    A5
anymore        anymore
E5      Ab5   A5    E5       Ab5   A5
middle
F#m5      Ab5    A5    (and so on)

 
:: Ultimate Guitar Archive :: 
http://www.ultimate-guitar.com 



Suggest correction
comments
print report bad tab
12 comments total. Showing first comments.
0 reply
Bubbles_666 20 Mar 03, 2002 07:00 PM

ooh smooth, no really you suck

0 reply
Muse(ic) ROCKS! 398 Mar 04, 2002 07:00 PM

this is shite ive tried to put mine up but whoevas in control havent done it so here it is

Feeder-Buck Rogers

chords
E G# A B C#m
--0----4----5----7----9
--0----4----5----7----9
--1----5----6----8----9
--2----6----7----9----11
--2----6----7----9----11
--0----4----5----7----9

intro/verse riff
A---11-11-11-11-11-11-11-11-6-6-6-7-7-7-7
E---0--0--0--0--0--0--0--0--4-4-4-5-5-5-5

2nd guitar?
e-----0-0-0-0-0-0-0-0-0-0-0
B---12-12-12-12-11-11-10-10

bridge
EEEEEEEEEG#G#G#AAA repeat BBBBBBBBB

chorus
EEEEEEEEBBBBBBBBC#mC#mC#mC#mC#mC#mC#mC#mAAAAAAA
EEEEEEEEBBBBBBBBAAAAAAAA AAAAAAA

Middle 8 (repeat this about 3 and a 1/2 times-listen to the song)
-----------------------------------------------------------
------------------------------9-9-9------------------------
------------------------------------11-11-11-8-8-8---------
--4-4-4--6-7-7--4-4-4--6-7-7----------------------11-11-11-
--4-4-4--6-7-7--4-4-4--6-7-7-------------------------------
--2-2-2--4-5-5--2-2-2--4-5-5-------------------------------

Intro
Verse
Bridge
Chorus
Verse
Bridge
Chorus x 2
Middle 8
Bridge
Chorus x 2

hope this helps, any changes u wish to tell me about email to
kinky_dude2k@hotmail.com
enjoy

0 reply
Muse(ic) ROCKS! 398 Mar 04, 2002 07:00 PM

for the intro/verse section they shud played at da same time i mean 11 and 0 if u get wot i mean, not 11 then 0

guest
You may want to rate the tab now too:
select rating
Wanna post a correction for this tab? Suggest correction