Oops, an error
Loading. Please wait.

Dove Grey Sands tab

version 1
version 1

Whole song

by Feeder
1,761 views 3 this week
3 commentsread comments
1 2 3 4 5
x 8
add to favorites
×
Save as Personal and add changes to this tab that will be seen only by you. Learn more ›
×
You can save this tab as Personal to edit and correct it or add notes. All changes will be seen only by you. Learn more »
launch autoscroll
font size
0
reset
how to read this tab
guitar tuner
edit
Autoscroll
slow
fast
+/-
esc
set tempo
stop
Song: Dove Grey Sands
Band: Feeder
Album: Pushing The Senses

Tuning: Standard

Capo 5th fret
notes relative to capo

Intro:
     D       Dsus2
e|---2---2---0---0----|x2
B|----3---3---3---3---|
G|-----2---2---2---2--|
D|--0---0---0---0-----|
A|--------------------|
E|--------------------|

Verse
     D       Dsus2    x2  C               G
e|---2---2---0---0----|---0---0---0---0----0---0---0---0-----| All x2
B|----3---3---3---3---|----3---3---3---3----3---3---3---3----|
G|-----2---2---2---2--|-----2---2---2---2----2---2---2---2---|
D|--0---0---0---0-----|--------------------------------------|
A|--------------------|--3---3---3---3-----------------------|
E|--------------------|-------------------3---3---3---3------|

Pre-Chorus

    D       Dsus2    x2 C
e|--2---2---0---0----|----------------------------------------| All x2
B|---3---3---3---3---|--5----5----5----5----5----5----5----5--|
G|----2---2---2---2--|---5----5----5----5----5----5----5----5-|
D|-0---0---0---0-----|-5----5----5----5----5----5----5----5---|
A|-------------------|----------------------------------------|
E|-------------------|----------------------------------------|

Chorus

you can play these chords using an arpeggio (follow the previous tabs to
understand how to pick the strings), but i prefer playing it using standard
chords


D
Led by devotion
      C
celebrate
      Em
celebrate
        D
celebration
 C         G
dove grey sands
D
Led by devotion
      C
celebrate
      Em
celebrate
       D
celebrate now
 C         G
dove grey sands

repeat intro
repeat verse
repeat pre-chorus
repeat chorus

Bridge

(Feeling like it's over...)

  F               C     Em7       Dm              C       G
e|-0---0---0---0---0---0---0---0---1---1---1---1---0---0---0---0---|x2
B|--1---1---1---1---1---1---1---1---3---3---3---3---1---1---1---1--|
G|---2---2---2---2---0---0---0---0---2---2---2---2---0---0---0---0-|
D|3---3---3---3-------------------0---0---0---0--------------------|
A|----------------3---3---2---2-------------------3---3------------|
E|--------------------------------------------------------3---3----|

repeat verse x 3

outro:
     D       Dsus2
e|---2---2---0---0----|x2
B|----3---3---3---3---|
G|-----2---2---2---2--|
D|--0---0---0---0-----|
A|--------------------|
E|--------------------|

then
   D        Dsus2
e|---2---2---0---0----2-|
B|----3---3---3---3-----|
G|-----2---2---2---2----|
D|--0---0---0---0----0--|
A|----------------------|
E|----------------------|

Amazing Song!!it took me a while but i think it's right!

            
            
Suggest correction
Creating personal tab
Creating personal tab
You can edit any tab online and save it as your Personal.

You can edit, replace or remove any tab part or add personal notes – all changes will be seen only by you.

Personal tabs can be accessed anytime from any device, even offline.
Learn more »
comments
print report bad tab
3 comments total.
0 reply
nmendies 30 Apr 08, 2006 12:23 PM

Although the song sounds good strumming like the author says, after a while playing the arpeggios sounds great, and it is very simple too.

Well tabbed...immaculate in fact.

0 reply
nefarity 50 Oct 24, 2009 01:13 AM

mmm from playing and listening closely, here's a minor correction:

Bridge

(Feeling like it's over...)

F C Em7 Dm C G
e|-0---0---0---0---0---0---0---0---1---1---1---1---0---0---0---0---|x2
B|--1---1---1---1---1---1---1---1---3---3---3---3---1---1---0---0--|
G|---2---2---2---2---0---0---0---0---2---2---2---2---0---0---0---0-|
D|3---3---3---3-------------------0---0---0---0--------------------|
A|----------------3---3---2---2-------------------3---3------------|
E|--------------------------------------------------------3---3----|

also, i play the pre-chorus this way

Pre-Chorus

D Dsus2 x2
e|--2---2---0---0----|--0---0---0---0---0---0---0---0---------| All x2
B|---3---3---3---3---|---1---1---1---1---1---1---1---1--------|
G|----2---2---2---2--|----2---2---2---2---2---2---2---2-------|
D|-0---0---0---0-----|-5---5---5---5--------------------------|
A|-------------------|-----------------3---3---3---3----------|
E|-------------------|----------------------------------------|

cheers

0 reply
nefarity 50 Oct 24, 2009 01:13 AM

good tab nonetheless

guest
You may want to rate the tab now too:
select rating
Wanna post a correction for this tab? Suggest correction