Oops, an error
Loading. Please wait.

Insomnia tab

version 3
version 3

Whole song

Interactive

by Feeder
473 views 3 this week
no commentswrite comment
1 2 3 4 5
1 last vote to show rating
add to favorites
×
Save as Personal and add changes to this tab that will be seen only by you. Learn more ›
×
You can save this tab as Personal to edit and correct it or add notes. All changes will be seen only by you. Learn more »
launch autoscroll
font size
0
reset
how to read this tab
guitar tuner
edit
Autoscroll
slow
fast
+/-
esc
set tempo
stop
----------------------------------------------------------------------------
                             Insomnia - Feeder
----------------------------------------------------------------------------

Tabbed by: acoustic-fish
Tuning: EADGBe (standard)

two guitar parts for this song. guitar two only plays during the verse and bridge. 
is as accurate as i could get it, listen to the song for the exact timing.

intro:
 e|-----------------|-----------------|-----------------|-----------------|
 B|-----------------|-----------------|-----------------|-----------------|
 G|-----------------|-----------------|-----------------|-----------------|
 D|---5--5--5-5-5-5-|-5-5--5-5-5-2--2-|-2--2-2-2-10--10-|-10--10-10-10-10-|
 A|---5--5--5-5-5-5-|-5-5--5-5-5-2--2-|-2--2-2-2-10--10-|-10--10-10-10-10-|
 E|---3--3--3-3-3-3-|-3-3--3-3-3-0--0-|-0--0-0-0-8---8--|-8---8--8--8--8--|
play once, clean


verse one: guitar one:
play once before guitar two and lyrics come in.
 e|-----------------|-----------------|-----------------|-----------------|
 B|-----------------|-----------------|-----------------|-----------------|
 G|-----------------|-----------------|-----------------|-----------------|
 D|---5--5--5-5-5-5-|-5-5--5-5-5-2--2-|-2--2-2-2-10--10-|-10--10-10-10-10-|
 A|---5--5--5-5-5-5-|-5-5--5-5-5-2--2-|-2--2-2-2-10--10-|-10--10-10-10-10-|
 E|---3--3--3-3-3-3-|-3-3--3-3-3-0--0-|-0--0-0-0-8---8--|-8---8--8--8--8--|

guitar two:
 e|-----------------|-----------------|-----------------|-----------------|
 B|---10------10----|-10------10------|--10------10-----|-11------11------|
 G|-------10-----10-|-----10------10--|------10------10-|-----10------10--|
 D|-----------------|-----------------|-----------------|-----------------|
 A|-----------------|-----------------|-----------------|-----------------|
 E|-----------------|-----------------|-----------------|-----------------|
lyrics:
reading magazines and counting sheep to pass the time away
hoping that tomorrows gonna bring a smile back home again
images of palm trees swaying in the wind on south beach
takes me back to better days, summer rays, the everglades in june

bridge: guitar one:
 e|-----------------|-----------------|-----------------|-----------------|
 B|-----------------|-----------------|-----------------|-----------------|
 G|-----------------|-----------------|-----------------|-----------------|
 D|--7-7-7-8--8-8-8-|--8-8-8--8-8-8---|--7-7-7-8--8-8-8-|--8-8-8--8-8-8---|
 A|--7-7-7-8--8-8-8-|--8-8-8--8-8-8---|--7-7-7-8--8-8-8-|--8-8-8--8-8-8---|
 E|--5-5-5-6--6-6-6-|--6-6-6--6-6-6---|--5-5-5-6--6-6-6-|--6-6-6--6-6-6---|

guitar two:
 e|-----------------|-----------------|-----------------|-----------------|
 B|-----------------|---8-8-8-8-10----|-----------------|---8-8-8-8-------|
 G|-----------------|-------------10--|-----------------|-----------10-10-|
 D|-----------------|-----------------|-----------------|-----------------|
 A|-----------------|-----------------|-----------------|-----------------|
 E|-----------------|-----------------|-----------------|-----------------|
play twice.
lyrics:
my brain, my poor brain
my brain, my poor brain

chorus:
 e|-----------------|-----------------|-----------------|-----------------|
 B|-----------------|-----------------|-----------------|-----------------|
 G|---------6--6--6-|---------9--9--9-|---------6--6--6-|-----------------|
 D|-9--9--9-6--6--6-|-7--7--7-9--9--9-|-9--9--9-6--6--6-|-7--7--7-2--2--2-|
 A|-9--9--9-4--4--4-|-7--7--7-7--7--7-|-9--9--9-4--4--4-|-7--7--7-2--2--2-|
 E|-7--7--7---------|-5--5--5---------|-7--7--7---------|-5--5--5-0--0--0-|
lyrics:
drinking myself to sleep again, nighthurse pills to keep me sane
drinking myself to sleep again, insomnia

verse two: same as verse one
lyrics:
Flying high in golden skies, I'm flicking channels in my mind
Finding my utopia a different chapter in a book
Thinking back to younger days as I escape in Cooper's Break
It takes me back to '84 the future's knocking at my door

bridge: same as before

chorus: same as before, but play twice

interlude one: guitar one
 e|-6-6-6-6-6-6-6-6-|-6-6-6-6-6-6-6-6-|
 B|-6-6-6-6-6-6-6-6-|-6-6-6-6-6-6-6-6-|
 G|-7-7-7-7-7-7-7-7-|-7-7-7-7-7-7-7-7-|
 D|-8-8-8-8-8-8-8-8-|-8-8-8-8-8-8-8-8-|
 A|-8-8-8-8-8-8-8-8-|-8-8-8-8-8-8-8-8-|
 E|-6-6-6-6-6-6-6-6-|-6-6-6-6-6-6-6-6-|

verse three: same as verse one (i think, but im not sure about this bit)
lyrics:
turning off a switch inside me
leaving all the stress behind me
flying over streams and houses
passing over the Wye valley
takes me back to '84
the future's knocking at my door

interlude two: guitar one:
 e|-----------------|-----------------|-----------------|-----------------|
 B|-----------------|-----------------|-----------------|-----------------|
 G|-----------------|-----------------|-----------------|-----------------|
 D|--7-7-7-8--8-8-8-|-8-8-8-8-8-8-8-8-|--7-7-7-8--8-8-8-|-8-8-8-8-8-8-8-8-|
 A|--7-7-7-8--8-8-8-|-8-8-8-8-8-8-8-8-|--7-7-7-8--8-8-8-|-8-8-8-8-8-8-8-8-|
 E|--5-5-5-6--6-6-6-|-6-6-6-6-6-6-6-6-|--5-5-5-6--6-6-6-|-6-6-6-6-6-6-6-6-|

guitar two:
 e|-----------------|-----------------|-----------------|-----------------|
 B|-----------------|-----------------|-----------------|---8-8-8-8-10----|
 G|-----------------|-----------------|-----------------|-------------10--|
 D|-----------------|-----------------|-----------------|-----------------|
 A|-----------------|-----------------|-----------------|-----------------|
 E|-----------------|-----------------|-----------------|-----------------|

bridge: same as before

chorus: same as before. play three times


| /  slide up
|   slide down
| h  hammer-on
| p  pull-off
| ~  vibrato
| +  harmonic
| x  Mute note
============================================================================

            
            
Suggest correction
Creating personal tab
Creating personal tab
You can edit any tab online and save it as your Personal.

You can edit, replace or remove any tab part or add personal notes – all changes will be seen only by you.

Personal tabs can be accessed anytime from any device, even offline.
Learn more »
Give kudos to tab author, rate the tab!
1 2 3 4 5
comments
print report bad tab
guest
You may want to rate the tab now too:
select rating
Wanna post a correction for this tab? Suggest correction