Oops, an error
Loading. Please wait.

Just A Day bass

version 2
version 2

Whole song

Interactive

by Feeder
656 views 3 this week
1 commentread comment
1 2 3 4 5
3 more votes to show rating
add to favorites
×
Save as Personal and add changes to this tab that will be seen only by you. Learn more ›
×
You can save this tab as Personal to edit and correct it or add notes. All changes will be seen only by you. Learn more »
launch autoscroll
font size
0
reset
guitar tuner
edit
Autoscroll
slow
fast
+/-
esc
set tempo
stop
Author
Difficulty
-------------------------------------------------------------------------------
			      just a day - Feeder
-------------------------------------------------------------------------------

Tabbed By : jim W
e-mail: jameswalker_14@hotmail.com

Tuning:E.A.D.G

  verse x3
G|--------------------------------------------------------------------------|
D|--------------------------------------------------------------------------|
A|--------------------------------------------------------------------------|
E|---5--5--4-5--5-5--5-5--4-5-5-4--0--0--0-0--0-0--0--4-2-0-0---------------|
    x1
G|--------------------------------------------------------------------------|
D|--------------------------------------------------------------------------|
A|--------------------------------------------------------------------------|
E|---5--5--4-5--5-5--5-5--4-5-5-4--0--0--0-0-0--4/7--7-7--7-7-7-------------|
   x2
G|--------------------------------------------------------------------------|
D|--------------------------------------------------------------------------|
A|--------------------------------------------------------------------------|
E|---5--5--4-5--5-5--5-5--4-5-5-4--0--0--0-0--0-0--0--4-2-0-0---------------|

  pre chours
G|--------------------------------------------------------------------------|
D|--------------------------------------------------------------------------|
A|---4--4--4-4--6-7-7-7--4-0------------------------------------------------|
E|---------------------------4--0--0--0-0--0-0--0-0--0-0-0------------------|

G|--------------------------------------------------------------------------|
D|----------------------------------------------2/7--7-7-7-7-7-7------------|
A|---4--4--4-4-4------------------------------------------------------------|
E|---------------4--4-4--4-4-4--5--5-5--5--5--------------------------------|

  chours
G|--------------------------------------------------------------------------|
D|--------------------------------------------------------------------------|
A|---------------------------------------------------------4--4--4-4-6-7----|
E|---0--0--0-4-5-7--7-7--7-7-7--5--5--4-5--5-5-5--4--5-5-4------------------|

G|--------------------------------------------------------------------------|
D|--------------------------------------------------------------------------|
A|--7-7--7-7-7--------------------------------------------------------------|
E|-------------7--7--7-7-7--5-5-5--4--5-5-4---------------------------------|
   solo
G|--------------------------------------------------------------------------|
D|--------------------------------------------------------------------------|
A|---------------------------------44444------------------------------------|
E|---000 45777777 5545555-4 5 5 4--------44444--5---------------------------|

G|--------------------------------------------------------------------------|
D|--------------------------------------------------------------------------|
A|---4-4--7-7-----------------4-4-------------------------------------------|
E|------------4--4-5--5-5-5--------5-5--4--4-5--5-5--4----------------------|

order of song

intro
verse
chours
verse
chours
solo
brige (no bass)
chours

| /  slide up
| \  slide down
| h  hammer-on
| p  pull-off
| ~  vibrato
| +  harmonic
| x  Mute note
===============================================================================

            
            
Suggest correction
Creating personal tab
Creating personal tab
You can edit any tab online and save it as your Personal.

You can edit, replace or remove any tab part or add personal notes – all changes will be seen only by you.

Personal tabs can be accessed anytime from any device, even offline.
Learn more »
Give kudos to tab author, rate the tab!
1 2 3 4 5
comments
print report bad tab
1 comment total.
0 reply
BiggerThanJesus 52 Aug 27, 2007 05:09 AM

hi this is my first tab, i think most of it is right but there may be a couple on mistakes in it.please enjoy and rate it and write a comment or woteva.

guest
You may want to rate the tab now too:
select rating
Wanna post a correction for this tab? Suggest correction