Oops, an error
Loading. Please wait.

Shatter bass

version 2
version 2

Whole song

Interactive

by Feeder
267 views 1 this week
no commentswrite comment
1 2 3 4 5
2 more votes to show rating
add to favorites
×
Save as Personal and add changes to this tab that will be seen only by you. Learn more ›
×
You can save this tab as Personal to edit and correct it or add notes. All changes will be seen only by you. Learn more »
launch autoscroll
font size
0
reset
guitar tuner
edit
Autoscroll
slow
fast
+/-
esc
set tempo
stop
Difficulty
I did not write all of this, I took this from another tab right next to this one, all is
except some timings and solo type things missed off.
This is my guess (I quickly picked my bass up to figure it, could be wrong.

Verse (timing was off)

g|-------------------------------------------------|
d|-------------------------------------------------|
a|-33--33--33--33--3333/66--66--66--66--/8--8--8--8|
e|-------------------------------------------------|
x 5
Pre-chorus verse
g|-------------------------------------------------|
d|-------------------------------------------------|

a|-33--33--33--33--3333/66--66--66-----------------|
e|-------------------------------------------------|

Chorus

g|-----------------------------------------|
d|-----------------------------------------|
a|--33333333--------66666666---------------|
e|----------44444444--------66666666-------|

g|-----------------------------------------|
d|-----------------------------------------|
a|--33333333--------6666666688888888-------|
e|----------44444444-----------------------|

Verse

Chorus 2
(with new fancy bits!)

g|-----------------------------------------|
d|-----------------------------------------|
a|--33333333--------66666666---------------|
e|----------44444444--------66666666-------|

g|-----------------------------------------|
d|-------------------------------8-10-8----|
a|--33333333--------66666666-8888----------|
e|----------44444444-----------------------|

(bare with me, this was a quick tab so it may be wrong (had no amp))

g|------------------------------10-----------------------------------|
d|--------------------------8888--888-------13------------13---------|
a|--33333333--------66666666---------(11 x4)--(11x3)(11x4)--(11x3)---|
e|----------44444444-------------------------------------------------|

Thats my guess, without an amp it's hard to tell, sounds and is theoretically correct,
I think it's it.

Bridge (un-changed, good tab, got timing perfect :P )

g|-----------------------------------------------|
d|-----------------------------------------------|
a|--333--555--66/11-11-11-11--8--8--8-/11-11-11--|
e|-----------------------------------------------|

g|-----------------------------------------------|
d|-----------------------------------------------|
a|--333--555--66/11-11-11-11\8---8---8---8---8---|
e|-----------------------------------------------|

g|-----------------------------------------------|
d|-----------------------------------------------|
a|--333--555--66/11-11-11-11--8--8--8-/11-11-11--|
e|-----------------------------------------------|

Final Pre-Chorus (un-changed)

g|----------------|
d|----------------|
a|-33--33--33--33-|
e|----------------|

Final Chorus

g|-----------------------------------------|
d|-----------------------------------------|
a|--33333333--------66666666---------------|
e|----------44444444--------66666666-------|

g|-----------------------------------------|
d|--------------------------------10-8-----|
a|--33333333--------66666666888888---------|
e|----------44444444-----------------------|

g|-----------------------------------------|
d|-(10 x 8)---------------88888888---------|
a|---------(11 x8)66666666-------(11 x16)--|
e|-----------------------------------------|

The original tab had end on 4 on E, same note as 11 on A (a G sharp), must have gotten
:s

Enjoy, hope I got it right, will change it if anything is wrong, I will have access to
amp soon, so I'll check.

(P.N. I was tired while doing this, so any mistakes on the tabs is laziness)

            
            
Suggest correction
Creating personal tab
Creating personal tab
You can edit any tab online and save it as your Personal.

You can edit, replace or remove any tab part or add personal notes – all changes will be seen only by you.

Personal tabs can be accessed anytime from any device, even offline.
Learn more »
Give kudos to tab author, rate the tab!
1 2 3 4 5
comments
print report bad tab
guest
Wanna post a correction for this tab? Suggest correction