Oops, an error
Loading. Please wait.

Universe Of Life tab

by Feeder
133 views 1 this week
no commentswrite comment
1 2 3 4 5
3 more votes to show rating
add to favorites
×
Save as Personal and add changes to this tab that will be seen only by you. Learn more ›
×
You can save this tab as Personal to edit and correct it or add notes. All changes will be seen only by you. Learn more »
launch autoscroll
font size
0
reset
how to read this tab
guitar tuner
edit
Autoscroll
slow
fast
+/-
esc
set tempo
stop
Feeder - Universe of Life
Album: All Bright Electric
Tuning: Db Ab Db Gb Bb Eb 

Notes:  Showed the approximate strumming for the intro but letting you listen and figure that out for the 
        rest, Chord changes are shown instead.  Can  be played in drop D but after watching some live videos, 
        it looks like they are playing in Drop C#/Db.  

[Intro]
D#|---------------------|---------------------|------------------|---------------------|
A#|---------------------|---------------------|------------------|---------------------|
F#|---------------------|---------------------|------------------|---------------------|
C#|-5 5-5-5/17-17-17-17-|-6-6-6-6/18-18-18-18-|-7-7-7-7/19-19-19-|-8-8-8-8/20-20-20-20-|
G#|-5-5-5-5/17-17-17-17-|-6-6-6-6/18-18-18-18-|-7-7-7-7/19-19-19-|-8-8-8-8/20-20-20-20-|
C#|-5-5-5-5/17-17-17-17-|-6-6-6-6/18-18-18-18-|-7-7-7-7/19-19-19-|-8-8-8-8/20-20-20-20-|

[Verse]
     We can't disguise when our faces show the fear that is inside...
D#|----------------------------------------------------------------|
A#|----------------------------------------------------------------|
F#|----------------------------------------------------------------|
C#|-5------------6--------------7--------------8-------------------|
G#|-5------------6--------------7--------------8-------------------|
C#|-5------------6--------------7--------------8-------------------|

     There's no surprises, no excuses just the body flows...
D#|---------------------------------------------------------------|
A#|---------------------------------------------------------------|
F#|---------------------------------------------------------------|
C#|-5--------------6-------------7-------------8----------8/10-10-|
G#|-5--------------6-------------7-------------8----------8/10-10-|
C#|-5--------------6-------------7-------------8----------8/10-10-|

[Pre-Chorus]
      Open hands, see the fires burn when the sun gets low...
D#|---------------------------------------------------------|
A#|---------------------------------------------------------|
F#|---------------------------------------------------------|
C#|-15-----15-------------15------------------15------------|
G#|-15-----16-------------17------------------16------------|
C#|-15-----15-------------15------------------15------------|

[Chorus]
    Seeing is believing, no there's nothing at all don't be fooled by foolish minds
D#|------------------------------------------------------------------------------------|
A#|------------------------------------------------------------------------------------|
F#|------------------------------------------------------------------------------------|
C#|-13--------8---------------------10---------5----------7--8------------------3----1-|
G#|-13--------8---------------------10---------5----------7--8------------------3----1-|
C#|-13--------8---------------------10---------5----------7--8------------------3----1-|

    Maybe there's a reason at the life that we hold, in this universe of life
D#|---------------------------------------------------------------------------|
A#|---------------------------------------------------------------------------|
F#|---------------------------------------------------------------------------|
C#|-13--------------8-------------10-----------5--------7----8------------10--|
G#|-13--------------8-------------10-----------5--------7----8------------10--|
C#|-13--------------8-------------10-----------5--------7----8------------10--|

[Interlude]
    We will go (we will go) to the end, the stars above the sky is now below
D#|---------------------------------------------------------------------------|
A#|---------------------------------------------------------------------------|
F#|---------------------------------------------------------------------------|
C#|-13------------------17-----------------15------------------------------13-|
G#|-13------------------17-----------------15------------------------------13-|
C#|-13------------------17-----------------15------------------------------13-|

    We will find (we will find) inner strength, wave goodbye to soul we used to know
D#|----------------------------------------------------------------------------------|
A#|----------------------------------------------------------------------------------|
F#|----------------------------------------------------------------------------------|
C#|-13--------------------17--------------------10------------------------------13---|
G#|-13--------------------17--------------------10------------------------------13---|
C#|-13--------------------17--------------------10------------------------------13---|

[Outro/Breakdown]
(after playing intro riff):
D#|----------------|------------------------|
A#|----------------|------------------------|
F#|----------------|------------------------|
C#|-5-5-5-5-5----5-|-5-5-5-5/17-17-17-17--5-|
G#|-5-5-5-5-5----5-|-5-5-5-5/17-17-17-17--5-|
C#|-5-5-5-5-5----5-|-5-5-5-5/17-17-17-17--5-|



************************************

| /  Slide up
 
************************************

            
            
Suggest correction
Creating personal tab
Creating personal tab
You can edit any tab online and save it as your Personal.

You can edit, replace or remove any tab part or add personal notes – all changes will be seen only by you.

Personal tabs can be accessed anytime from any device, even offline.
Learn more »
Give kudos to tab author, rate the tab!
1 2 3 4 5
comments
print report bad tab
guest
You may want to rate the tab now too:
select rating
Wanna post a correction for this tab? Suggest correction